ZETSUBOU BILLY

DEATH NOTE

TABS ~ By Fefe (Tron544)

 

Intro:

 

e|--------|------------------------|

B|--------|------------------------|

G|--------|------------------------|

D|--1--1--|--1--1------2--2--2--1--|

A|--1--1--|--1--1------2--2--2--1--|

D|--1--1--|--1--1------2--2--2--1--|

 

  /~~~~~~~~~~~~~~~~~~~~~~~~~~REPEAT~x2~~/~~REPITE~x2~~~~~~~~~~~~~~~~~~~~~~~~~~~~~\

e|--------------------------------------|-----------------------------------------|

B|--------------------------------------|-----------------------------------------|

G|-----2--2--------------2--2-----------|-----2--2--------------2--2--------------|

D|--1--------1--4--1--1--------1--4--1--|--1--------1--4--1--1--------2--2--2--1--|

A|--1--------1--4--1--1--------1--4--1--|--1--------1--4--1--1--------2--2--2--1--|

D|--1--------1--4--1--1--------1--4--1--|--1--------1--4--1--1--------2--2--2--1--|

 

 

Verse/Estrofa:

 

e|------------------------------------------------|--------------------------------------|

B|------------------------------------------------|--------------------------------------|

G|--6--8--6------------------6--8--6--------------|-----------6--8--8--6--6--------------|

D|-----------6--8--6------------------6--8--6-----|-----6--8-----------------8--8--6-----|

A|--------------------9------------------------9--|--9--------------------------------9--|

D|------------------------------------------------|--------------------------------------|

CHORDS ~ CLICK HERE TO VIEW THEM!

 

* You need the software called GUITAR PRO 5

       ~> DOWNLOAD IT HERE <~

Zetsubou Billy - Tron544
00:00 / 00:00
DONATE%20BUTTON%20(EN)_edited.png

Pre-Chorus/Pre-Estribillo:

 

e|----------------------------------------------------|

B|-----------6--7--6-----9-b--9--9------9--9--9-b--9--|

G|--8--8--8-----------8-------------------------------|

D|----------------------------------------------------|

A|----------------------------------------------------|

D|----------------------------------------------------|

 

 

Chorus/Estribillo:

 

  /~~~~~~~~~~~~~~~~~~~~REPEAT~x2~~/~~REPITE~x2~~~~~~~~~~~~~~~~~~~~\

e|-----------------------------------------------------------------|-------------------------------------|

B|--7--7--7--9--7--9--9-b--9-------------9-b--9--7--6--9--7--6--7--|-----------9-b--9--7--6--9--7--6--7--|

G|------------------------------8--8--8----------------------------|--8--8--8----------------------------|

D|-----------------------------------------------------------------|-------------------------------------|

A|-----------------------------------------------------------------|-------------------------------------|

D|-----------------------------------------------------------------|-------------------------------------|

 

 

Outro: x2

 

e|--------------------------------------|-----------------------------------------|

B|--------------------------------------|-----------------------------------------|

G|-----2--2--------------2--2-----------|-----2--2--------------2--2--------------|

D|--1--------1--4--1--1--------1--4--1--|--1--------1--4--1--1--------2--2--2--1--|

A|--1--------1--4--1--1--------1--4--1--|--1--------1--4--1--1--------2--2--2--1--|

D|--1--------1--4--1--1--------1--4--1--|--1--------1--4--1--1--------2--2--2--1--|

©2015 by Fefe - Tron544

Sigueme en:

  • YouTube - White Circle
  • Facebook - White Circle
  • Instagram - White Circle
  • Twitter - White Circle
This site was designed with the
.com
website builder. Create your website today.
Start Now