A CRUEL ANGEL'S THESIS

NEON GENESIS EVANGELION

TABS ~ By Fefe (Tron544)

 

Intro: x2

 

e|--------------------------------------------------|

B|------------------------------11------------------|

G|----------10------10--10--10------13--12--10--12--|

D|--10--13------13----------------------------------|

A|--------------------------------------------------|

E|--------------------------------------------------|

 

e|----------------------------------------------|

B|------11--13----------11--11------11--11--13--|

G|--12----------10--------------12--------------|

D|------------------13--------------------------|

A|----------------------------------------------|

E|----------------------------------------------|

 

 

Verse/Estrofa:

 

e|------------------------------------|----------------------------------------------|

B|------------------------------------|----------------------------------------------|

G|------------------------10----------|------12--13--12--10------10--12--13--12------|

D|--13------------13--13--------------|--13------------------13------------------10--|

A|------13--13----------------13--13--|----------------------------------------------|

E|------------------------------------|----------------------------------------------|

 

e|----------------------------------------------------|-------------------------------------|

B|----------------------------------------------------|-------------------------------------|

G|--------------------------------10--13--12--10------|--10--12--10--9--10------------------|

D|--10--12--13--13--12--12----13------------------13--|---------------------10--10--12--12--|

A|----------------------------------------------------|-------------------------------------|

E|----------------------------------------------------|-------------------------------------|

 

e|------------------------------------|----------------------------------------------|

B|------------------------------------|----------------------------------------------|

G|------------------------10----------|------12--13--12--10------10--12--13--12------|

D|--13------------13--13--------------|--13------------------13------------------10--|

A|------13--13----------------13--13--|----------------------------------------------|

E|------------------------------------|----------------------------------------------|

 

e|----------------------------------------------------|---------------------------------|

B|----------------------------------------------------|---------------------------------|

G|--------------------------------10--13--12--10------|--10--12--10--9--10--12--13--12--|

D|--10--12--13--13--12--12----13------------------13--|---------------------------------|

A|----------------------------------------------------|---------------------------------|

E|----------------------------------------------------|---------------------------------|

Zankoku na Tenshi no Teeze - Tron544
00:00 / 00:00
DONATE%20BUTTON%20(EN)_edited.png

Pre-Chorus/Pre-Estribillo:

 

e|------------------------------------------------------------------------------|

B|------------------------------------------------------------------------------|

G|--------------------------10--10------------------------------10--------------|

D|--13--13--12--13--13--12----------13--12--10--12--13--13--12------12--10------|

A|--------------------------------------------------------------------------13--|

E|------------------------------------------------------------------------------|

 

e|------------------------------------------------------------------------------|

B|------------------------------------------------------------------------------|

G|--------------------------10--10--------------10--12--13--12--10------10--12--|

D|--13--13--12--13--13--12----------13--12--13----------------------13----------|

A|------------------------------------------------------------------------------|

E|------------------------------------------------------------------------------|

 

 

Chorus/Estribillo:

 

e|--------------------------------------------------|--------------------------------------------------|

B|------------------------------11------------------|------11--13--------------------------------------|

G|----------10------10--10--10------13--12--10--12--|--12----------10----------------------------------|

D|--10--13------13----------------------------------|------------------13--12--12--10--12--13--13--13--|

A|--------------------------------------------------|--------------------------------------------------|

E|--------------------------------------------------|--------------------------------------------------|

 

e|--------------------------------------------------|----------------------------------------------|

B|------------------------------11------------------|------11--13----------11--11------11--11--13--|

G|----------10------10--10--10------13--12--10--12--|--12----------10--------------12--------------|

D|--10--13------13----------------------------------|------------------13--------------------------|

A|--------------------------------------------------|----------------------------------------------|

E|--------------------------------------------------|----------------------------------------------|

 

e|--------------------------------------------------|----------------------------------------------|

B|------------------------------11------------------|------11--13----------11--11------11--11--13--|

G|----------10------10--10--10------13--12--10--12--|--12----------10--------------12--------------|

D|--10--13------13----------------------------------|------------------13--------------------------|

A|--------------------------------------------------|----------------------------------------------|

E|--------------------------------------------------|----------------------------------------------|

©2015 by Fefe - Tron544

Sigueme en:

  • YouTube - White Circle
  • Facebook - White Circle
  • Instagram - White Circle
  • Twitter - White Circle
This site was designed with the
.com
website builder. Create your website today.
Start Now