~ YUME YUME ~

TABLATURAS ~ By Fefe - Tron544

 

Intro:

 

e|-----------------------------------------------------------|

B|--6--6--6--6--6---6--6--6--6-------------------------------|

G|--5--5--5--5--5---5--5--5--5---5--5--5--5--5---5--5--5--5--|

D|--3--3--3--3--3---3--3--3--3---5--5--5--5--5---5--5--5--5--|

A|-----------------------------------------------------------|

E|-------------------------------5--5--5--5--5---5--5--5--5--|

 

e|-----------------------------------------------------------|

B|--6--6--6--6--6---6--6--6--6-------------------------------|

G|--5--5--5--5--5---5--5--5--5---5--5--5--5--5---5--5--5--5--|

D|--3--3--3--3--3---3--3--3--3---5--5--5--5--5---5--5--5--5--|

A|-----------------------------------------------------------|

E|-------------------------------5--5--5--5--5---5--5--5--5--|

 

e|-----------------------------------------------------|--------------------------------------------|

B|-----------------------------------------------------|----------------------------------6-h-8--6--|

G|--5-h-7--#--7--#--#--5-h-7--#--7--#--#--5-h-7--#--#--|--5-h-7--#--7--#--#--5-h-7--#--#------------|

D|-----------------------------------------------------|--------------------------------------------|

A|-----------------------------------------------------|--------------------------------------------|

E|-----------------------------------------------------|--------------------------------------------|

 

e|-----------------------------------------------------|--------------------------------------------|

B|-----------------------------------------------------|----------------------------------6-h-8--6--|

G|--5-h-7--#--7--#--#--5-h-7--#--7--#--#--5-h-7--#--#--|--5-h-7--#--7--#--#--5-h-7--#--#------------|

D|-----------------------------------------------------|--------------------------------------------|

A|-----------------------------------------------------|--------------------------------------------|

E|-----------------------------------------------------|--------------------------------------------|

 

 

First Verse/Primera Estrofa:

 

  /~~~~~~~~~~~~~~~~~~~( REPEAT x7 / REPITE x7 )~~~~~~~~~~~~~~~~~~\

e|----------------------------------------------------------------|

B|--6--6--6--6--6--#--6--#--6--#--6-------------------------------|

G|--5--5--5--5--5--#--5--#--5--#--5---5--5--5--5--5--#-5-#-5-#-5--|

D|--3--3--3--3--3--#--3--#--3--#--3---5--5--5--5--5--#-5-#-5-#-5--|

A|----------------------------------------------------------------|

E|------------------------------------5--5--5--5--5--#-5-#-5-#-5--|

 

e|-----------------------------------------------------------------------------|

B|--6--6--6--6--6--#--6--#--6--#--6--------------------------------------------|

G|--5--5--5--5--5--#--5--#--5--#--5---12-h-14--12--10-h-12--10-b---------------|

D|--3--3--3--3--3--#--3--#--3--#--3--------------------------------#--#--#--#--|

A|-----------------------------------------------------------------#--#--#--#--|

E|-----------------------------------------------------------------#--#--#--#--|

 

 

First Chorus/Primer Estribillo: x2

 

e|-----------------------------------------------------------------------------|

B|-----------------------------------------------------------------------------|

G|---------------------8--8--8--8--8--8---6--6--6--6--6--6---------------------|

D|--3--3--3--3--3--3---8--8--8--8--8--8---6--6--6--6--6--6---6--6--6--6--6--6--|

A|--3--3--3--3--3--3---6--6--6--6--6--6---4--4--4--4--4--4---6--6--6--6--6--6--|

E|--1--1--1--1--1--1-----------------------------------------4--4--4--4--4--4--|

 

 

Interlude/Intermedio: x2

 

e|-----------------------------------------------------|--------------------------------------------|

B|-----------------------------------------------------|----------------------------------6-h-8--6--|

G|--5-h-7--#--7--#--#--5-h-7--#--7--#--#--5-h-7--#--#--|--5-h-7--#--7--#--#--5-h-7--#--#------------|

D|-----------------------------------------------------|--------------------------------------------|

A|-----------------------------------------------------|--------------------------------------------|

E|-----------------------------------------------------|--------------------------------------------|

 

 

Second Verse/Segunda Estrofa:

 

                                             /~~~~~~~~~~~~~~~~~~~( REPEAT x2 / REPITE x2 )~~~~~~~~~~~~~~~~~~\

e|------------------------------------------|----------------------------------------------------------------|

B|------------------------------------------|--6--6--6--6--6--#--6--#--6--#--6-------------------------------|

G|--#--#--#--#--5--5--5--5--5--#-5-#-5-#-5--|--5--5--5--5--5--#--5--#--5--#--5---5--5--5--5--5--#-5-#-5-#-5--|

D|--#--#--#--#--5--5--5--5--5--#-5-#-5-#-5--|--3--3--3--3--3--#--3--#--3--#--3---5--5--5--5--5--#-5-#-5-#-5--|

A|------------------------------------------|----------------------------------------------------------------|

E|--#--#--#--#--5--5--5--5--5--#-5-#-5-#-5--|------------------------------------5--5--5--5--5--#-5-#-5-#-5--|

 

e|-----------------------------------------------------------------------------|

B|--6--6--6--6--6--#--6--#--6--#--6--------------------------------------------|

G|--5--5--5--5--5--#--5--#--5--#--5---12-h-14--12--10-h-12--10-b---------------|

D|--3--3--3--3--3--#--3--#--3--#--3--------------------------------#--#--#--#--|

A|-----------------------------------------------------------------#--#--#--#--|

E|-----------------------------------------------------------------#--#--#--#--|

 

 

Second Chorus/Segundo Estribillo:

 

  /~~~~~~~~~~~~~~~~~~~~~~~~~( REPEAT x2 / REPITE x2 )~~~~~~~~~~~~~~~~~~~~~~~~~\

e|-----------------------------------------------------------------------------|

B|-----------------------------------------------------------------------------|

G|---------------------8--8--8--8--8--8---6--6--6--6--6--6---------------------|

D|--3--3--3--3--3--3---8--8--8--8--8--8---6--6--6--6--6--6---6--6--6--6--6--6--|

A|--3--3--3--3--3--3---6--6--6--6--6--6---4--4--4--4--4--4---6--6--6--6--6--6--|

E|--1--1--1--1--1--1-----------------------------------------4--4--4--4--4--4--|

 

e|--------------------------------------------------------------|

B|--13--13--13--13--13--13--11--11--11--11--11--11--9--9--9--9--|

G|--------------------------------------------------------------|

D|--10--10--10--10--10--10--8---8---8---8---8---8---6--6--6--6--|

A|--------------------------------------------------------------|

E|--------------------------------------------------------------|

 

e|--------------------------------------------------|

B|--8--8--8--8--8--8--9--9--9--9--9--9--9--9--9--9--|

G|--------------------------------------------------|

D|--5--5--5--5--5--5--6--6--6--6--6--6--6--6--6--6--|

A|--------------------------------------------------|

E|--------------------------------------------------|

 

e|--------------------------------------------------------------|

B|--13--13--13--13--13--13--11--11--11--11--11--11--9--9--9--9--|

G|--------------------------------------------------------------|

D|--10--10--10--10--10--10--8---8---8---8---8---8---6--6--6--6--|

A|--------------------------------------------------------------|

E|--------------------------------------------------------------|

 

e|--------------------------------------------------|

B|--------------------------------------------------|

G|--8--8--8--8--8--8--6--6--6--6--6--6--5--5--5--5--|

D|--------------------------------------------------|

A|--6--6--6--6--6--6--4--4--4--4--4--4--3--3--3--3--|

E|--------------------------------------------------|

 

e|--------------------------------------------------------------|

B|--13--13--13--13--13--13--11--11--11--11--11--11--9--9--9--9--|

G|--------------------------------------------------------------|

D|--10--10--10--10--10--10--8---8---8---8---8---8---6--6--6--6--|

A|--------------------------------------------------------------|

E|--------------------------------------------------------------|

 

e|--------------------------------------------------|

B|--8--8--8--8--8--8--9--9--9--9--9--9--9--9--9--9--|

G|--------------------------------------------------|

D|--5--5--5--5--5--5--6--6--6--6--6--6--6--6--6--6--|

A|--------------------------------------------------|

E|--------------------------------------------------|

 

e|--------------------------------------------------------------|

B|--13--13--13--13--13--13--11--11--11--11--11--11--9--9--9--9--|

G|--------------------------------------------------------------|

D|--10--10--10--10--10--10--8---8---8---8---8---8---6--6--6--6--|

A|--------------------------------------------------------------|

E|--------------------------------------------------------------|

 

e|--------------------------------------------------|

B|--------------------------------------------------|

G|--8--8--8--8--8--8--6--6--6--6--6--6--5--5--5--5--|

D|--------------------------------------------------|

A|--6--6--6--6--6--6--4--4--4--4--4--4--3--3--3--3--|

E|--------------------------------------------------|

 

 

Solo:

 

e|--16--15------18--16------16--15------18--16------16--15------|

B|----------16----------16----------16----------16----------16--|

G|--------------------------------------------------------------|

D|--------------------------------------------------------------|

A|--------------------------------------------------------------|

E|--------------------------------------------------------------|

 

e|---------------------------------------------------------------------------|

B|--14--13-------------------------------------------------------13--14--16--|

G|----------15--13--15--15-/-16--15--13-h-15-p-13------13----15--------------|

D|-------------------------------------------------15------------------------|

A|---------------------------------------------------------------------------|

E|---------------------------------------------------------------------------|

 

e|--16--15------18--16------16--15------18--16------20--18--16----16-b--16--|

B|----------16----------16----------16----------16--------------------------|

G|--------------------------------------------------------------------------|

D|--------------------------------------------------------------------------|

A|--------------------------------------------------------------------------|

E|--------------------------------------------------------------------------|

 

 

Bridge/Puente:

 

e|---------------------------|--------------------|

B|---------------------------|--------------------|

G|--10------8------6---------|--10------8------6--|

D|--10------8------6------6--|--10------8------6--|

A|--8-------6------4------6--|--8-------6------4--|

E|------------------------4--|--------------------|

 

 

Third Chorus/Tercer Estribillo:

 

  /~~~~~~~~~~~~~~~~~~~~~~~~~( REPEAT x2 / REPITE x2 )~~~~~~~~~~~~~~~~~~~~~~~~~\

e|-----------------------------------------------------------------------------|

B|-----------------------------------------------------------------------------|

G|---------------------8--8--8--8--8--8---6--6--6--6--6--6---------------------|

D|--3--3--3--3--3--3---8--8--8--8--8--8---6--6--6--6--6--6---6--6--6--6--6--6--|

A|--3--3--3--3--3--3---6--6--6--6--6--6---4--4--4--4--4--4---6--6--6--6--6--6--|

E|--1--1--1--1--1--1-----------------------------------------4--4--4--4--4--4--|

 

e|--------------------------------------------------------------|

B|--13--13--13--13--13--13--11--11--11--11--11--11--9--9--9--9--|

G|--------------------------------------------------------------|

D|--10--10--10--10--10--10--8---8---8---8---8---8---6--6--6--6--|

A|--------------------------------------------------------------|

E|--------------------------------------------------------------|

 

e|--------------------------------------------------|

B|--8--8--8--8--8--8--9--9--9--9--9--9--9--9--9--9--|

G|--------------------------------------------------|

D|--5--5--5--5--5--5--6--6--6--6--6--6--6--6--6--6--|

A|--------------------------------------------------|

E|--------------------------------------------------|

 

e|--------------------------------------------------------------|

B|--13--13--13--13--13--13--11--11--11--11--11--11--9--9--9--9--|

G|--------------------------------------------------------------|

D|--10--10--10--10--10--10--8---8---8---8---8---8---6--6--6--6--|

A|--------------------------------------------------------------|

E|--------------------------------------------------------------|

 

e|--------------------------------------------------|

B|--------------------------------------------------|

G|--8--8--8--8--8--8--6--6--6--6--6--6--5--5--5--5--|

D|--------------------------------------------------|

A|--6--6--6--6--6--6--4--4--4--4--4--4--3--3--3--3--|

E|--------------------------------------------------|

 

e|--------------------------------------------------------------|

B|--13--13--13--13--13--13--11--11--11--11--11--11--9--9--9--9--|

G|--------------------------------------------------------------|

D|--10--10--10--10--10--10--8---8---8---8---8---8---6--6--6--6--|

A|--------------------------------------------------------------|

E|--------------------------------------------------------------|

 

e|--------------------------------------------------|

B|--8--8--8--8--8--8--9--9--9--9--9--9--9--9--9--9--|

G|--------------------------------------------------|

D|--5--5--5--5--5--5--6--6--6--6--6--6--6--6--6--6--|

A|--------------------------------------------------|

E|--------------------------------------------------|

 

e|--------------------------------------------------------------|

B|--13--13--13--13--13--13--11--11--11--11--11--11--9--9--9--9--|

G|--------------------------------------------------------------|

D|--10--10--10--10--10--10--8---8---8---8---8---8---6--6--6--6--|

A|--------------------------------------------------------------|

E|--------------------------------------------------------------|

 

e|--------------------------------------------------|

B|--------------------------------------------------|

G|--8--8--8--8--8--8--6--6--6--6--6--6--5--5--5--5--|

D|--------------------------------------------------|

A|--6--6--6--6--6--6--4--4--4--4--4--4--3--3--3--3--|

E|--------------------------------------------------|

 

 

Outro:

 

e|----------------------------------------------------------|------------------------------------------------|

B|----------------------------------------------------------|-------------------------------------9-h-11--9--|

G|--8-h-10--#--10--#--#--8-h-10--#--10--#--#--8-h-10--#--#--|--8-h-10--#--10--#--#--8-h-10--#--#-------------|

D|----------------------------------------------------------|------------------------------------------------|

A|----------------------------------------------------------|------------------------------------------------|

E|----------------------------------------------------------|------------------------------------------------|

 

e|----------------------------------------------------------|------------------------------------------------|

B|----------------------------------------------------------|-------------------------------------9-h-11--9--|

G|--8-h-10--#--10--#--#--8-h-10--#--10--#--#--8-h-10--#--#--|--8-h-10--#--10--#--#--8-h-10--#--#-------------|

D|----------------------------------------------------------|------------------------------------------------|

A|----------------------------------------------------------|------------------------------------------------|

E|----------------------------------------------------------|------------------------------------------------|

 

e|----------------------------------------------------------|------------------------------------------------|

B|----------------------------------------------------------|-------------------------------------9-h-11--9--|

G|--8-h-10--#--10--#--#--8-h-10--#--10--#--#--8-h-10--#--#--|--8-h-10--#--10--#--#--8-h-10--#--#-------------|

D|----------------------------------------------------------|------------------------------------------------|

A|----------------------------------------------------------|------------------------------------------------|

E|----------------------------------------------------------|------------------------------------------------|

 

e|----------------------------------------------------------|------------------------------------------------|

B|----------------------------------------------------------|-------------------------------------9-h-11--9--|

G|--8-h-10--#--10--#--#--8-h-10--#--10--#--#--8-h-10--#--#--|--8-h-10--#--10--#--#--8-h-10--#--#-------------|

D|----------------------------------------------------------|------------------------------------------------|

A|----------------------------------------------------------|------------------------------------------------|

E|----------------------------------------------------------|------------------------------------------------|

 

e|------------------------------------------------------------|

B|------------------------------------------------------------|

G|--8-h-10--#--10--#--#--8-h-10--#--10--#--#--8-h-10--10--10--|

D|------------------------------------------------------------|

A|------------------------------------------------------------|

E|------------------------------------------------------------|

 

 

Yume Yume - Tron544
00:00 / 00:00

©2019 by Fefe - Tron544

Sigueme en:

  • YouTube - White Circle
  • Facebook - White Circle
  • Instagram - White Circle
  • Twitter - White Circle
This site was designed with the
.com
website builder. Create your website today.
Start Now