~ YUME SEKAI ~

TABLATURAS ~ By Fefe - Tron544

 

Intro:

 

GUITAR 1:

 

e|--------------------------|--------------------------------|

B|--------------------------|--------------------------------|

G|--8------7------5---------|--5--5---4----8--8---7---5---3--|

D|--8------8------5------8--|--5--5--------8--8--------------|

A|--6------5------3------8--|--3--3---2----6--6---5---3---1--|

E|-----------------------6--|--------------------------------|

 

GUITAR 2:

 

e|--------------------------------------|---------------------------|

B|-------------------------9--8---------|---------------------------|

G|-----8--7---------8--10--------10--8--|-------------8--7----------|

D|--8--------10--8----------------------|--10--9-------------10--8--|

A|--------------------------------------|---------------------------|

E|--------------------------------------|---------------------------|

 

 

Verse/Estrofa:

 

GUITAR 1:

 

e|-------------------------------------------------------|

B|-------------------------------------------------------|

G|--(8)-x--x--x---x--x--x--x-----------------------------|

D|--(8)-x--x--x---x--x--x--x---(5)-x--x--x---x--x--x--x--|

A|--(6)-x--x--x---x--x--x--x---(5)-x--x--x---x--x--x--x--|

E|-----------------------------(3)-x--x--x---x--x--x--x--|

 

GUITAR 2:

 

e|------------------------------------------------|

B|------------------------------------------------|

G|--8--8--8--7--8--10--7--7-h-8------8--7---------|

D|-----------------------------------------10--8--|

A|------------------------------------------------|

E|------------------------------------------------|

 

GUITAR 1:

 

e|---------------------------------------------------------|

B|---------------------------------------------------------|

G|---------------------------------------------------------|

D|--(6)-x--x--x---x--x--x--x---(6)-x--x--x---(8)--x--x--x--|

A|--(6)-x--x--x---x--x--x--x---(6)-x--x--x---(8)--x--x--x--|

E|--(4)-x--x--x---x--x--x--x---(4)-x--x--x---(6)--x--x--x--|

 

GUITAR 2:

 

e|--------------------------------|

B|--------------------------------|

G|--------7--8--------8-----------|

D|--10------------10-----9--8--6--|

A|--------------------------------|

E|--------------------------------|

 

GUITAR 1:

 

e|-------------------------------------------------------|

B|-------------------------------------------------------|

G|--(8)-x--x--x---x--x--x--x-----------------------------|

D|--(8)-x--x--x---x--x--x--x---(5)-x--x--x---x--x--x--x--|

A|--(6)-x--x--x---x--x--x--x---(5)-x--x--x---x--x--x--x--|

E|-----------------------------(3)-x--x--x---x--x--x--x--|

 

GUITAR 2:

 

e|------------------------------------------------|

B|------------------------------------------------|

G|--8--8--8--7--8--10--7--7-h-8------8--7---------|

D|-----------------------------------------10--8--|

A|------------------------------------------------|

E|------------------------------------------------|

 

GUITAR 1:

 

e|---------------------------------------------------------|

B|---------------------------------------------------------|

G|---------------------------------------------------------|

D|--(6)-x--x--x---x--x--x--x---(6)-x--x--x---(8)--x--x--x--|

A|--(6)-x--x--x---x--x--x--x---(6)-x--x--x---(8)--x--x--x--|

E|--(4)-x--x--x---x--x--x--x---(4)-x--x--x---(6)--x--x--x--|

 

GUITAR 2:

 

e|---------------------------------|

B|---------------------------------|

G|--------7--8--------8-----8--10--|

D|--10------------10-----9---------|

A|---------------------------------|

E|---------------------------------|

 

 

Pre-Chorus/Pre-Estribillo:

 

GUITAR 1:

 

e|------------|-------------------------|

B|------------|-------------------------|

G|------------|---------5----5----------|

D|--6------6--|--5------5----5---8---6--|

A|--6------6--|--5------3----3---8---6--|

E|--4------4--|--3---------------6---4--|

 

GUITAR 2:

 

e|---------------------------------------------|---------------------------------------------|

B|--8--8--8--9-------------8--8-h-9--8--8------|--8--8--8--9---------------------------------|

G|--------------10--8--10------------------10--|--------------10--8--10--8--10-----------10--|

D|---------------------------------------------|----------------------------------8--10------|

A|---------------------------------------------|---------------------------------------------|

E|---------------------------------------------|---------------------------------------------|

 

GUITAR 1:

 

e|------------|--------------------|

B|------------|--------------------|

G|------------|--------------------|

D|--6------5--|--3----5----6----8--|

A|--6------5--|--3----5----6----8--|

E|--4------3--|--1----3----4----6--|

 

GUITAR 2:

 

e|---------------------------------------------|------------------------------------------|

B|--8--8--8--9-------------8--8-h-9--8--8------|----------------------------------13--11--|

G|--------------10--8--10------------------10--|------8------8------8------8--10----------|

D|---------------------------------------------|--10-----10-----10-----10-----------------|

A|---------------------------------------------|------------------------------------------|

E|---------------------------------------------|------------------------------------------|

 

 

Chorus/Estribillo:

 

GUITAR 1:

 

e|-----------------|

B|-----------------|

G|--8------7-------|

D|--8------8----5--|

A|--6------5----5--|

E|--------------3--|

 

GUITAR 2:

 

e|------------------------------------------------------------------|

B|------------------8--9--11--11-b--11--9--8------8----9--8--8------|

G|--8--10--8--7--8----------------------------10----------------10--|

D|------------------------------------------------------------------|

A|------------------------------------------------------------------|

E|------------------------------------------------------------------|

 

GUITAR 1:

 

e|-----------------|

B|-----------------|

G|--5-----------8--|

D|--5------8----8--|

A|--3------8----6--|

E|---------6-------|

 

GUITAR 2:

 

e|----------------------------------------9--8---------|

B|--8--9--11--11-b--11--9--8--9--11-------------11--9--|

G|-------------------------------------8---------------|

D|-----------------------------------------------------|

A|-----------------------------------------------------|

E|-----------------------------------------------------|

 

GUITAR 1:

 

e|-----------------|---------------------------|

B|-----------------|---------------------------|

G|--------------5--|----------------8---7---5--|

D|--6------5----5--|--3------6------8----------|

A|--6------5----3--|--3------6------6---5---3--|

E|--4------3-------|--1------4-----------------|

 

GUITAR 2:

 

                                                 /~~~~( REPEAT x2 / REPITE x2)~~~\

e|----------------------------------------------|---------------------------------|

B|--8---------------------------8---------------|--8-------8----------------------|

G|-----10--8-------7--8--10--7-------10--10--8--|-----8-------8----8--7--8--7--8--|

D|--------------8-------------------------------|---------------------------------|

A|----------------------------------------------|---------------------------------|

E|----------------------------------------------|---------------------------------|

 

 

Yume Sekai - Tron544
00:00 / 00:00

©2019 by Fefe - Tron544

Sigueme en:

  • YouTube - White Circle
  • Facebook - White Circle
  • Instagram - White Circle
  • Twitter - White Circle
This site was designed with the
.com
website builder. Create your website today.
Start Now