YOKUBOU NI MICHI TA SEINENDAN

ONE OK ROCK

TABS ~ By Fefe (Tron544)

 

Intro:

 

e|-------------------|

B|-------------------|

G|--6-b--6--4--------|

D|-------------6--4--|

A|-------------------|

E|-------------------|

 

e|----------------------------------------------------------------|

B|--------------------7-b--7---5--4-----------------------7-b--7--|

G|--------------3--4-----------------6--4-----------3--4----------|

D|--6----4-/-6-------------------------------4-/-6----------------|

A|----------------------------------------------------------------|

E|----------------------------------------------------------------|

 

e|-----------------------------------------------------------|

B|---------------7-b--7---5--4-----------------------7-b--7--|

G|---------3--4-----------------6--4-----------3--4----------|

D|--4-/-6-------------------------------4-/-6----------------|

A|-----------------------------------------------------------|

E|-----------------------------------------------------------|

 

 

First Verse/Primer Estrofa:

 

e|----------------------------------------------------------------|

B|----------------------------------------------------------------|

G|----------6--6------------4--4------------6--6------------4--4--|

D|--6--6----6--6----4--4----4--4----6--6----6--6----4--4----4--4--|

A|--6--6----4--4----4--4----2--2----6--6----4--4----4--4----2--2--|

E|--4--4------------2--2------------4--4------------2--2----------|

 

e|----------------------------------------------------------------|

B|----------------------------------------------------------------|

G|----------6--6------------4--4------------6--6------------4--4--|

D|--6--6----6--6----4--4----4--4----6--6----6--6----4--4----4--4--|

A|--6--6----4--4----4--4----2--2----6--6----4--4----4--4----2--2--|

E|--4--4------------2--2------------4--4------------2--2----------|

 

 

Interlude/Intermedio:

 

e|-------------------------------------------------------------------|

B|-----------------------7-b--7---5--4-----------------------7-b--7--|

G|-----------------3--4-----------------6--4-----------3--4----------|

D|--6--6----4-/-6-------------------------------4-/-6----------------|

A|--6--6-------------------------------------------------------------|

E|--4--4-------------------------------------------------------------|

Yokubou ni Michi ta Seinendan - Tron544
00:00 / 00:00
DONATE%20BUTTON%20(EN)_edited.png

Second Verse/Segunda Estrofa:

 

e|-------------------------------------------------------------------------------------|

B|-------------------------------------------------------------------------------------|

G|------------------6-b--6------------------------------------------6-b--6-------------|

D|---------4-h-6--------------4----------------------------4-h-6--------------4--------|

A|--4-h-6------------------------7--6----6--4-------4-h-6------------------------7--6--|

E|---------------------------------------------7---------------------------------------|

 

e|------------------------------------------------------------------------------------------------|

B|------------------------------------------------------------------------------------------------|

G|------------------6-b--6------------------------------------------6-b--6------------------------|

D|---------4-h-6--------------4----------------------------4-h-6--------------4-------------------|

A|--4-h-6------------------------7--6----6--4-------4-h-6------------------------7--6----6--4-----|

E|---------------------------------------------7-----------------------------------------------7--|

 

 

First Pre-Chorus/Primer Pre-Estribillo:

 

e|----------11------------------14------------11------------------14---14--14--14--14--14--14--|

B|------12------12--14--11----------------12------12--14--11-----------------------------------|

G|--13----------------------11--11----13----------------------11--11---11--11--11--11--11--11--|

D|---------------------------------------------------------------------------------------------|

A|---------------------------------------------------------------------------------------------|

E|---------------------------------------------------------------------------------------------|

 

 

First Chorus/Primer Estribillo:

 

e|-------------------|---------12-b--12--11-------------------|

B|-------------------|-----------------------12-/-14--12------|

G|--6-b--6--4--------|------------------------------------13--|

D|-------------6--4--|--6-------------------------------------|

A|-------------------|----------------------------------------|

E|-------------------|----------------------------------------|

 

e|-------------------------------12-b--12--11-------------------|

B|------12--11---------------------------------12-/-14--12------|

G|--11----------11--11-/-13---------------------------------13--|

D|--------------------------------------------------------------|

A|--------------------------------------------------------------|

E|--------------------------------------------------------------|

 

 

Solo:

 

e|--------------------------------------------------------------------|

B|---------------------------------14-b--14--12--11--11-h-12--11------|

G|---------3--4-----6-b--6-b--6-----------------------------------11--|

D|--4-/-6--------4----------------------------------------------------|

A|--------------------------------------------------------------------|

E|--------------------------------------------------------------------|

 

e|------------------------14---------------------------------13--15-/-16--15--------------------18--21-b--|

B|------11--12------14-b------14-b---14-b-r--12--14------14--------------------14-/-16--20--21------------|

G|--13----------11-----------------------------------13---------------------------------------------------|

D|--------------------------------------------------------------------------------------------------------|

A|--------------------------------------------------------------------------------------------------------|

E|--------------------------------------------------------------------------------------------------------|

 

 

Second Pre-Chorus/Segundo Pre-Estribillo:

 

e|----------11------------------14------------11------------------|

B|------12------12--14--11----------------12------12--14--11------|

G|--13----------------------11--11----13----------------------11--|

D|----------------------------------------------------------------|

A|----------------------------------------------------------------|

E|----------------------------------------------------------------|

 

e|--14---14--14--14--14--14--14--14--14--14--14--14--14--14--|

B|-----------------------------------------------------------|

G|--11---11--11--11--11--11--11--11--11--11--11--11--11--11--|

D|-----------------------------------------------------------|

A|-----------------------------------------------------------|

E|-----------------------------------------------------------|

 

 

Second Chorus/Segundo Estribillo:

 

e|-------------------|---------14-b--14--13-------------------|

B|-------------------|-----------------------14-/-16--14------|

G|--8-b--8--6--------|------------------------------------15--|

D|-------------8--6--|--8-------------------------------------|

A|-------------------|----------------------------------------|

E|-------------------|----------------------------------------|

 

e|-------------------------------14-b--14--13-------------------|

B|------14--13---------------------------------14-/-16--14------|

G|--13----------13--13-/-15---------------------------------15--|

D|--------------------------------------------------------------|

A|--------------------------------------------------------------|

E|--------------------------------------------------------------|

 

 

Outro:

 

e|-----------------------------------------------------------|

B|---------------9-b--9---7--6-----------------------9-b--9--|

G|---------5--6-----------------8--6-----------5--6----------|

D|--6-/-8-------------------------------6-/-8----------------|

A|-----------------------------------------------------------|

E|-----------------------------------------------------------|

 

e|---------------------------------------------------------------------------|

B|---------------9-b--9---7--6-----------------------9-b--9------------------|

G|---------5--6-----------------8--6-----------5--6-----------6--6--5--5--5--|

D|--6-/-8-------------------------------6-/-8-----------------6--6--6--6--6--|

A|------------------------------------------------------------4--4--3--3--3--|

E|---------------------------------------------------------------------------|

©2015 by Fefe - Tron544

Sigueme en:

  • YouTube - White Circle
  • Facebook - White Circle
  • Instagram - White Circle
  • Twitter - White Circle
This site was designed with the
.com
website builder. Create your website today.
Start Now