~ XY&Z ~

TABLATURAS ~ By Fefe - Tron544

 

Intro:

 

GUITAR 1:

 

e|----------------------------------|
B|----------------------------------|
G|-----2--4---5--4--2------2--4--6--|
D|--4--2--4---5--4--2---4--2--4--6--|
A|--4--0--2---3--2--0---4--0--2--4--|
E|--2-------------------2-----------|

 

e|-----------------------------------------------------------------------|
B|-----------------------------------------------------------------------|
G|------------------2--2--2--2--2--2---4--4--4--4--4---6--6--6--6--6--6--|
D|--4--4--4--4--4---2--2--2--2--2--2---4--4--4--4--4---6--6--6--6--6--6--|
A|--4--4--4--4--4---0--0--0--0--0--0---2--2--2--2--2---4--4--4--4--4--4--|
E|--2--2--2--2--2--------------------------------------------------------|

 

GUITAR 3:

 

e|----------------------------------------------------------------------------|
B|----------------------------------------------------------------------------|
G|--11--11--11--11--11---9--9--9--9--9--9---8--8--8--8--8---6--6--6--6--6--6--|
D|----------------------------------------------------------------------------|
A|--9---9---9---9---9----7--7--7--7--7--7---6--6--6--6--6---4--4--4--4--4--4--|
E|----------------------------------------------------------------------------|

 

GUITAR 1:

 

e|-----------------------------------------------------------|
B|-----------------------------------------------------------|
G|------------------2--2--2--2--2--2---6---5---4---2---------|
D|--4--4--4--4--4---2--2--2--2--2--2---6---5---4---2---2--3--|
A|--4--4--4--4--4---0--0--0--0--0--0---4---3---2---0---2--3--|
E|--2--2--2--2--2--------------------------------------0--1--|

 

GUITAR 3:

 

e|---------------------------------------------------------------------------|
B|-----------------------10--10--10--10--10--10---14---13---12---10----------|
G|--11--11--11--11--11------------------------------------------------9--10--|
D|-----------------------7---7---7---7---7---7----11---10---9----7-----------|
A|--9---9---9---9---9-------------------------------------------------7--8---|
E|---------------------------------------------------------------------------|

 


Verse/Estrofa:

 

GUITAR 1:

 

e|-----------------------------------------------------------------------------|
B|-----------------------------------------------------------------------------|
G|--------------------2--#--#--#--#--#--#--4--#--#--#--#--#--6--#--#--#--#--#--|
D|--4--#--#--#--#--#--2--#--#--#--#--#--#--4--#--#--#--#--#--6--#--#--#--#--#--|
A|--4--#--#--#--#--#--0--#--#--#--#--#--#--2--#--#--#--#--#--4--#--#--#--#--#--|
E|--2--#--#--#--#--#-----------------------------------------------------------|

 

GUITAR 2:

 

e|-------------------------------------------------------------|
B|-------9--10--9----------------------------------------------|
G|--11-------------11--9--11-----------------------------------|
D|-----------------------------11--9------9------9--11---------|
A|------------------------------------12-----12---------12--9--|
E|-------------------------------------------------------------|

 

GUITAR 3:

 

e|----------#--#--#------#--#--#--#--|
B|----------#--#--#------#--#--#--#--|
G|--11------#--#--#------#--#--#--#--|
D|----------#--#--#------#--#--#--#--|
A|--9-------#--#--#------#--#--#--#--|
E|----------#--#--#------#--#--#--#--|

 

GUITAR 1:

 

e|-----------------------------------------------------------------------------|
B|-----------------------------------------------------------------------------|
G|--------------------2--#--#--#--#--#--#--4--#--#--#--#--#--6--#--#--#--#--#--|
D|--4--#--#--#--#--#--2--#--#--#--#--#--#--4--#--#--#--#--#--6--#--#--#--#--#--|
A|--4--#--#--#--#--#--0--#--#--#--#--#--#--2--#--#--#--#--#--4--#--#--#--#--#--|
E|--2--#--#--#--#--#-----------------------------------------------------------|

 

GUITAR 2:

 

e|---------------------------------------------|
B|-----------------------------------------10--|
G|--9--11--9--11--9--11---9--11--9--11--9------|
D|---------------------------------------------|
A|---------------------------------------------|
E|--------
-------------------------------------|

 

GUITAR 3:

 

e|---------#--#--#--#---7-p-5--7-p-5--7-p-5--7-p-5--7-p-5--7-p-5--7-p-5--7-p-5--|
B|---------#--#--#--#-----------------------------------------------------------|
G|---------#--#--#--#-----------------------------------------------------------|
D|--4------#--#--#--#-----------------------------------------------------------|
A|--4------#--#--#--#-----------------------------------------------------------|
E|--2------#--#--#--#-----------------------------------------------------------|

 

GUITAR 1:

 

e|-----------------------------------------------------------------------------|
B|-----------------------------------------------------------------------------|
G|--------------------2--#--#--#--#--#--#--4--#--#--#--#--#--6--#--#--#--#--#--|
D|--4--#--#--#--#--#--2--#--#--#--#--#--#--4--#--#--#--#--#--6--#--#--#--#--#--|
A|--4--#--#--#--#--#--0--#--#--#--#--#--#--2--#--#--#--#--#--4--#--#--#--#--#--|
E|--2--#--#--#--#--#-----------------------------------------------------------|

 

GUITAR 2:

 

e|-------------------------------------------------------------|
B|-------9--10--9----------------------------------------------|
G|--11-------------11--9--11-----------------------------------|
D|-----------------------------11--9------9------9--11---------|
A|------------------------------------12-----12---------12--9--|
E|-------------------------------------------------------------|

 

GUITAR 3:

 

e|---------------------------------------------------------------------------------------------------|
B|---------------------------------------------------------------------------------------------------|
G|--6--6--6--6--6--6--6--6--6--6--6--6--6--6--6--6---6--6--6--6--6--6--6--6--6--6--6--6--6--6--6--6--|
D|---------------------------------------------------------------------------------------------------|
A|---------------------------------------------------------------------------------------------------|
E|---------------------------------------------------------------------------------------------------|

 

GUITAR 1:

 

e|-----------------------------------------------------------------------------|
B|-----------------------------------------------------------------------------|
G|--------------------2--#--#--#--#--#--#--4--#--#--#--#--#--6--#--#--#--#--#--|
D|--4--#--#--#--#--#--2--#--#--#--#--#--#--4--#--#--#--#--#--6--#--#--#--#--#--|
A|--4--#--#--#--#--#--0--#--#--#--#--#--#--2--#--#--#--#--#--4--#--#--#--#--#--|
E|--2--#--#--#--#--#-----------------------------------------------------------|

 

GUITAR 2:

 

e|---------------------------------------------|
B|-----------------------------------------10--|
G|--9--11--9--11--9--11---9--11--9--11--9------|
D|---------------------------------------------|
A|---------------------------------------------|
E|---------------------------------------------|

 

GUITAR 3:

 

e|---------------------------------------------------------------------------------------------------|
B|---------------------------------------------------------------------------------------------------|
G|--6--6--6--6--6--6--6--6--6--6--6--6--6--6--6--6---6--6--6--6--6--6--6--6--6--6--6--6--6--6--6--6--|
D|---------------------------------------------------------------------------------------------------|
A|---------------------------------------------------------------------------------------------------|
E|---------------------------------------------------------------------------------------------------|

 


Pre-Chorus/Pre-Estribillo:

 

GUITAR 1:

 

e|---------------------------------------|
B|---------------------------------------|
G|--7--7--7--7--7--7---9--9--9--9--9--9--|
D|--7--7--7--7--7--7---9--9--9--9--9--9--|
A|--5--5--5--5--5--5---7--7--7--7--7--7--|
E|---------------------------------------|

 

GUITAR 2:

 

e|--------------------------------------------------------------|
B|------------------------------10--9--10--9--10--9-------------|
G|--11--11--11--11--11-------------------------------9--9-------|
D|----------------------12--12------------------------------11--|
A|--------------------------------------------------------------|
E|--------------------------------------------------------------|

 

GUITAR 3:

 

e|--10--10--10--10--10--10---12--12--12--12--12--12--|
B|--10--10--10--10--10--10---12--12--12--12--12--12--|
G|--11--11--11--11--11--11---13--13--13--13--13--13--|
D|--12--12--12--12--12--12---14--14--14--14--14--14--|
A|---------------------------------------------------|
E|---------------------------------------------------|

 

GUITAR 1:

 

e|------------------------------------------|
B|------------------------------------------|
G|--6--6--6--6--6--6------------------------|
D|--6--6--6--6--6--6---4--4--4---4----------|
A|--4--4--4--4--4--4---4--4--4---4----------|
E|---------------------2--2--2---2--2-/--\--|

 

GUITAR 2:

 

e|-----------------------------------------------------------------|
B|-----------------------------------------------------------------|
G|--9------9------9-/-11-------------------------------------------|
D|-----11-----11----------11--9------9------9------9-/-11---9--11--|
A|-------------------------------12-----12-----12------------------|
E|-----------------------------------------------------------------|

 

GUITAR 3:

 

e|--9---9---9---9---9---9-------------------------|
B|--9---9---9---9---9---9----12--12--11---12--14--|
G|--9---9---9---9---9---9-------------------------|
D|--11--11--11--11--11--11---9---9---8----9---11--|
A|------------------------------------------------|
E|------------------------------------------------|

 

GUITAR 1:

 

e|-----------------------------------------------------------------------------------------------|
B|-----------------------------------------------------------------------------------------------|
G|-----------------------------------------------------------------------------------------------|
D|--5--x--x--x--x--x--x---x--x--x--x--x--x--x--x---5--x--x--x--x--x--x---x--x--x--x--x--x--x--x--|
A|--5--x--x--x--x--x--x---x--x--x--x--x--x--x--x---5--x--x--x--x--x--x---x--x--x--x--x--x--x--x--|
E|--3--x--x--x--x--x--x---x--x--x--x--x--x--x--x---3--x--x--x--x--x--x---x--x--x--x--x--x--x--x--|

 

GUITAR 2:

 

e|--------------------------------|
B|--------------------------------|
G|-----------------------------9--|
D|--12--11--9------12--11--12-----|
A|-------------12-----------------|
E|--------------------------------|

 

GUITAR 3:

 

e|-----------------------------------------------------------------------------------------------|
B|-----------------------------------------------------------------------------------------------|
G|-----------------------------------------------------------------------------------------------|
D|--5--x--x--x--x--x--x---x--x--x--x--x--x--x--x---5--x--x--x--x--x--x---x--x--x--x--x--x--x--x--|
A|--5--x--x--x--x--x--x---x--x--x--x--x--x--x--x---5--x--x--x--x--x--x---x--x--x--x--x--x--x--x--|
E|--3--x--x--x--x--x--x---x--x--x--x--x--x--x--x---3--x--x--x--x--x--x---x--x--x--x--x--x--x--x--|

 

GUITAR 1:

 

e|-----------------------------------------------------------------------------------------------|
B|-----------------------------------------------------------------------------------------------|
G|-----------------------------------------------------------------------------------------------|
D|--2--x--x--x--x--x--x---x--x--x--x--x--x--x--x---2--x--x--x--x--x--x---x--x--x--x--x--x--x--x--|
A|--2--x--x--x--x--x--x---x--x--x--x--x--x--x--x---2--x--x--x--x--x--x---x--x--x--x--x--x--x--x--|
E|--0--x--x--x--x--x--x---x--x--x--x--x--x--x--x---0--x--x--x--x--x--x---x--x--x--x--x--x--x--x--|

 

GUITAR 2:

 

e|---------------------------------|
B|---------------------------------|
G|--7-/-9-------7-----7--7--7-/-9--|
D|-----------9-----9---------------|
A|---------------------------------|
E|---------------------------------|


GUITAR 3:

 

e|---------------------------------------------|
B|---------------------------------------------|
G|---------------------------------------------|
D|---------------------------------------------|
A|----------------------2--4--4-/-7--4--7-/-9--|
E|--0--2--4---2--4--5--------------------------|

 

GUITAR 1:

 

e|---------------------------------|
B|---------------------------------|
G|---------------------------------|
D|--4--4--4--4--4---4--4--4--4--4--|
A|--4--4--4--4--4---4--4--4--4--4--|
E|--2--2--2--2--2---2--2--2--2--2--|

 

GUITAR 2:

 

e|-------------------------------|
B|---------------12--12--11------|
G|--11-------11--------------11--|
D|-------11----------------------|
A|-------------------------------|
E|-------------------------------|

 

GUITAR 3:

 

e|-----------------------------------|
B|-----------------------12--11------|
G|-------------------------------11--|
D|--8--9--11---9--8------------------|
A|-------------------9---------------|
E|-----------------------------------|

 


Chorus/Estribillo:

 

GUITAR 1:

 

e|----------------------------------------------------------------------------------|
B|----------------------------------------------------------------------------------|
G|--7--7--7--7--7---9--9--9--9--9--9---11--11--11--11--11---11--11--11--11--11--11--|
D|--7--7--7--7--7---9--9--9--9--9--9---11--11--11--11--11---11--11--11--11--11--11--|
A|--5--5--5--5--5---7--7--7--7--7--7---9---9---9---9---9----9---9---9---9---9---9---|
E|----------------------------------------------------------------------------------|

 

GUITAR 2:

 

e|---------|---------------------------------------------------------|
B|---------|-------10--9------------------------10-------------------|
G|------9--|--11----------11--9--11--11--9--11------9-/-11--------9--|
D|--11-----|--------------------------------------------------11-----|
A|---------|---------------------------------------------------------|
E|---------|---------------------------------------------------------|

 

GUITAR 1:

 

e|---------------------------------------------------------|
B|---------------------------------------------------------|
G|--7--7--7--7--7---9--9--9--9--9--9---11--11--11--11--11--|
D|--7--7--7--7--7---9--9--9--9--9--9---11--11--11--11--11--|
A|--5--5--5--5--5---7--7--7--7--7--7---9---9---9---9---9---|
E|---------------------------------------------------------|

 

GUITAR 2:

 

e|--------------------------------------------------|
B|-----------10--9------9--12--12--11---------------|
G|--11--------------11-----------------11--------9--|
D|-------11----------------------------------11-----|
A|--------------------------------------------------|
E|--------------------------------------------------|

 

GUITAR 1:

 

e|----------------------------------------------------------------------------------|
B|----------------------------------------------------------------------------------|
G|--7--7--7--7--7---9--9--9--9--9--9---10--10--10--10--10---11--11--11--11--11--11--|
D|--7--7--7--7--7---9--9--9--9--9--9---11--11--11--11--11---11--11--11--11--11--11--|
A|--5--5--5--5--5---7--7--7--7--7--7---8---8---8---8---8----9---9---9---9---9---9---|
E|----------------------------------------------------------------------------------|

 

GUITAR 2:

 

e|-----------------------------------|
B|-------10--9----------12--10-------|
G|--11----------11--10-----------11--|
D|-----------------------------------|
A|-----------------------------------|
E|-----------------------------------|

 

GUITAR 1:

 

e|-----------------------------------------------------------------------------|
B|-----------------------------------------------------------------------------|
G|--7--7--7--7--7---9--9--9--9--9--9-------------------------------------------|
D|--7--7--7--7--7---9--9--9--9--9--9-------------------------------------------|
A|--5--5--5--5--5---7--7--7--7--7--7-------------------------------------------|
E|-------------------------------------0-h-2--0-h-2--0-h-2--0-h-2--5--4--2--0--|

 

GUITAR 2:

 

e|-----------------------------------------------------|
B|--10--10--10--10--10-h-12--10--9---------------------|
G|----------------------------------9--9-/-11-------9--|
D|----------------------------------------------11-----|
A|-----------------------------------------------------|
E|-----------------------------------------------------|

 

GUITAR 1:

e|-----------------------------------------------|
B|-----------------------------------------------|
G|--7--7---9--9--9--9---11--11---11--11--11--11--|
D|--7--7---9--9--9--9---11--11---11--11--11--11--|
A|--5--5---7--7--7--7---9---9----9---9---9---9---|
E|-----------------------------------------------|

 

GUITAR 2:

 

e|---------------------------------------------------------|
B|-------10--9------------------------10-------------------|
G|--11----------11--9--11--11--9--11------9-/-11--------9--|
D|--------------------------------------------------11-----|
A|---------------------------------------------------------|
E|---------------------------------------------------------|

 

GUITAR 1:

 

e|--------------------------|
B|--------------------------|
G|--7--7---9--9--9--9---11--|
D|--7--7---9--9--9--9---11--|
A|--5--5---7--7--7--7---9---|
E|--------------------------|

 

GUITAR 2:

 

e|--------------------------------------------------|
B|-----------10--9------9--12--12--11---------------|
G|--11--------------11-----------------11--------9--|
D|-------11----------------------------------11-----|
A|--------------------------------------------------|
E|--------------------------------------------------|

 

GUITAR 1:

 

e|----------------------------------------------------------------------------------|
B|----------------------------------------------------------------------------------|
G|--7--7--7--7--7---9--9--9--9--9--9---10--10--10--10--10---11--11--11--11--11--11--|
D|--7--7--7--7--7---9--9--9--9--9--9---11--11--11--11--11---11--11--11--11--11--11--|
A|--5--5--5--5--5---7--7--7--7--7--7---8---8---8---8---8----9---9---9---9---9---9---|
E|----------------------------------------------------------------------------------|

 

GUITAR 2:

 

e|-----------------------------------|
B|-------10--9----------12--10-------|
G|--11----------11--10-----------11--|
D|-----------------------------------|
A|-----------------------------------|
E|-----------------------------------|

 

GUITAR 1:

 

e|------------------------------------------------------------------------------|
B|------------------------------------------------------------------------------|
G|--7--7--7--7--7---9--9--9--9--9--9---11--11--11--11--11---11--11--11--11--11--|
D|--7--7--7--7--7---9--9--9--9--9--9---11--11--11--11--11---11--11--11--11--11--|
A|--5--5--5--5--5---7--7--7--7--7--7---9---9---9---9---9----9---9---9---9---9---|
E|------------------------------------------------------------------------------|

 

GUITAR 2:

 

e|--------------------------------------------------------|
B|--10--10--10--10--10-h-12--12--12--12--12--11-----------|
G|------------------------------------------------9-/-11--|
D|--------------------------------------------------------|
A|--------------------------------------------------------|
E|--------------------------------------------------------|

 


Outro:

 

GUITAR 1:

 

e|--------------------------------------------------------|
B|--------------------------------------------------------|
G|--7--7--7--7--7---9--9--9--9----------------------------|
D|--7--7--7--7--7---9--9--9--9----------------------------|
A|--5--5--5--5--5---7--7--7--7----------------------------|
E|-------------------------------2--0--2--0--2--0--2-/-5--|

 

GUITAR 2:

 

e|--------------------------------------------------|
B|----------------------------------------------10--|
G|--11---11--9--9--9--11---11--9--11--9--11--9------|
D|--------------------------------------------------|
A|--------------------------------------------------|
E|--------------------------------------------------|

 

GUITAR 1:

 

e|------------------------------------------------------------------------------|
B|------------------------------------------------------------------------------|
G|--7--7--7--7--7---9--9--9--9---7--7--7---9--9--9--9---7--7--7---9--9--10--11--|
D|--7--7--7--7--7---9--9--9--9---7--7--7---9--9--9--9---7--7--7---9--9--10--11--|
A|--5--5--5--5--5---7--7--7--7---5--5--5---7--7--7--7---5--5--5---7--7--8---9---|
E|------------------------------------------------------------------------------|

 

GUITAR 2:

 

e|------------------------------------------------------------------------------------------------|
B|-------------------------12--10--12--12--12-/-13--12--10---12--10--12--12--12-/-13--12--10------|
G|--11---11--9--9--9--11----------------------------------------------------------------------11--|
D|------------------------------------------------------------------------------------------------|
A|------------------------------------------------------------------------------------------------|
E|------------------------------------------------------------------------------------------------|

 

 

XY&Z - Tron544
00:00 / 00:00

©2019 by Fefe - Tron544

Sigueme en:

  • YouTube - White Circle
  • Facebook - White Circle
  • Instagram - White Circle
  • Twitter - White Circle
This site was designed with the
.com
website builder. Create your website today.
Start Now