~ WORLD IS MINE ~

TABLATURAS ~ By Fefe - Tron544

 

Intro:

 

e|----------------------------------------------------------------|

B|------13----------------------------------------------------13--|

G|--10--------10--10--------------10--10--12--13--12--10----------|

D|--------------------13------13--------------------------13------|

A|----------------------------------------------------------------|

E|----------------------------------------------------------------|

 

e|------------------------------------------------------------------------11--|
B|----------13------------------------------------------------------13--------|
G|------10--------10----10----------10--10------10--10----13--13--------------|
D|--13----------------------13--13--------------------------------------------|
A|----------------------------------------------------------------------------|
E|----------------------------------------------------------------------------|


e|----------|

B|----------|

G|------10--|

D|--13------|

A|----------|

E|----------|

 

e|-------------------------------------|-------------------------------|

B|-------------------------------------|-------------------------------|

G|-------------------------------------|-------------------------------|

D|--3--3--3---6----3---3--3----6----8--|--3--3---6----3---3--3---6--8--|

A|--3--3--3---6----3---3--3----6----8--|--3--3---6----3---3--3---6--8--|

E|--1--1--1---4----1---1--1----4----6--|--1--1---4----1---1--1---4--6--|

 

e|----------------------------------------------|

B|----------------------------------------------|

G|----------------------------8---7---6------8--|

D|--3--3--3---6----3---3--3---8---7---6------8--|

A|--3--3--3---6----3---3--3---6---5---4------6--|

E|--1--1--1---4----1---1--1---------------------|

 

 

Verse/Estrofa:

 

GUITAR 1:

 

e|-----------------------------------------------------|---------------------------------------------------------|

B|-----------------------------------------------------|---------------------------------------------------------|

G|-----------------------------------------------------|---------------------------------------------------8--8--|

D|--3--x--x--x---x--x--x--x---x--x--x--x---x--x--x--x--|--x--x--x--x---x--x--x--x---x--x--x--x---x--x--x---8--8--|

A|--3--x--x--x---x--x--x--x---x--x--x--x---x--x--x--x--|--x--x--x--x---x--x--x--x---x--x--x--x---x--x--x---6--6--|

E|--1--x--x--x---x--x--x--x---x--x--x--x---x--x--x--x--|--x--x--x--x---x--x--x--x---x--x--x--x---x--x--x---------|

 

GUITAR 2:

 

e|------------------------------------------------|--------------------------------------------------------|

B|------------------------------------------------|----------------------------12--11----------------------|

G|----------10--10--------------------------------|------10----------10----13----------13--13--10----------|

D|--10--13----------13--13----10--13--10--13--10--|--13------13--13--------------------------------13--13--|

A|------------------------------------------------|--------------------------------------------------------|

E|------------------------------------------------|--------------------------------------------------------|

 

GUITAR 1:

 

e|-----------------------------|-------------------------------------|

B|-----------------------------|-----------------------------12--12--|

G|--6--6---7--7---8--8---9--9--|--10--10---12--12---13--13---11--11--|

D|-----------------------------|-----------------------------9---9---|

A|--4--4---5--5---6--6---7--7--|--8---8----10--10---11--11-----------|

E|-----------------------------|-------------------------------------|

 

GUITAR 2:

 

e|------------------------------------------------------------|

B|--------------------------------------------12--11----------|

G|------10--13----------------10------13--10----------13--10--|

D|--13------------13--10--13------13--------------------------|

A|------------------------------------------------------------|

E|------------------------------------------------------------|

 

GUITAR 1:

 

e|-----------------------------------------------------|---------------------------------------------------------|

B|-----------------------------------------------------|---------------------------------------------------------|

G|-----------------------------------------------------|---------------------------------------------------8--8--|

D|--3--x--x--x---x--x--x--x---x--x--x--x---x--x--x--x--|--x--x--x--x---x--x--x--x---x--x--x--x---x--x--x---8--8--|

A|--3--x--x--x---x--x--x--x---x--x--x--x---x--x--x--x--|--x--x--x--x---x--x--x--x---x--x--x--x---x--x--x---6--6--|

E|--1--x--x--x---x--x--x--x---x--x--x--x---x--x--x--x--|--x--x--x--x---x--x--x--x---x--x--x--x---x--x--x---------|

 

GUITAR 2:

 

e|--------------------------------------------------------|-------------------------------------------------------|

B|--------------------------------------------------------|-----------------------------------12--11--------------|

G|----------10--------------------------------------------|----------------------10--10---10----------13--10------|

D|--10--13--------10--13--13--13--10--13--10--13--10------|--13--10--13--10--13-------------------------------13--|

A|----------------------------------------------------13--|-------------------------------------------------------|

E|--------------------------------------------------------|-------------------------------------------------------|

 

GUITAR 1:

 

e|-----------------------------|-------------------------------------|

B|-----------------------------|-------------------------------------|

G|--6--6---7--7---8--8---9--9--|--10--10---12--12---13--13---13--13--|

D|-----------------------------|-------------------------------------|

A|--4--4---5--5---6--6---7--7--|--8---8----10--10---11--11---11--11--|

E|-----------------------------|-------------------------------------|

 

GUITAR 2:

 

e|----------------------|----------------------------------|------------------|

B|----------------------|----------------------------------|------------------|

G|----------------------|------10--10--10------------------|--------------10--|

D|--10--10------13--10--|--10--------------13--13--13--10--|--13--10--13------|

A|----------13----------|----------------------------------|------------------|

E|----------------------|----------------------------------|------------------|

 

 

Pre-Chorus/Pre-Estribillo::

 

GUITAR 1:

 

e|------------------|---------------------------------------------------|

B|------------------|---9--9--9---10--10--10---12--12--12---10--10--10--|

G|--6--6------8--8--|---------------------------------------------------|

D|--6--6------8--8--|---6--6--6---8---8---8----10--10--10---8---8---8---|

A|--4--4------6--6--|---------------------------------------------------|

E|------------------|---------------------------------------------------|

 

GUITAR 2:

 

e|--------------------------|----------------------------------------------|----------|

B|--------------------------|----------------------------------------------|----------|

G|--13--10------10------10--|--10--13--10------------------10--10------10--|----------|

D|------------------13------|--------------13--13--10--13----------13------|--13--10--|

A|--------------------------|----------------------------------------------|----------|

E|--------------------------|----------------------------------------------|----------|

 

GUITAR 1:

 

e|------------------|---------------------------------------------------|

B|------------------|---9--9--9---10--10--10---12--12--12---10--10--10--|

G|--6--6------8--8--|---------------------------------------------------|

D|--6--6------8--8--|---6--6--6---8---8---8----10--10--10---8---8---8---|

A|--4--4------6--6--|---------------------------------------------------|

E|------------------|---------------------------------------------------|

 

GUITAR 2:

 

e|----------------------|--------------------------------------|

B|----------------------|--------------12--11------------------|

G|----------10------10--|--13--13--10----------13--10----------|

D|--------------13------|------------------------------13--10--|

A|--13------------------|--------------------------------------|

E|----------------------|--------------------------------------|

 

GUITAR 1:

 

e|---------------------------------|

B|--9--9--9---9---9--9---9--9---9--|

G|--8--8--8---8---8--8---8--8---8--|

D|--7--7--7---7---7--7---7--7---7--|

A|--8--8--8---8---8--8---8--8---8--|

E|---------------------------------|

 

GUITAR 2:

 

e|------------------------------------------|

B|------------------------------------------|

G|--------------------------------------10--|

D|--13--13--13---13---13--13---13--13-------|

A|------------------------------------------|

E|------------------------------------------|

 

 

Chorus/Estribillo:

 

GUITAR 1:

 

e|---------------------------------------|

B|---------------------------------------|

G|--6------8------10------13--12--10--8--|

D|--6------8------10---------------------|

A|--4------6------8-------11--10--8---6--|

E|---------------------------------------|

 

GUITAR 2:

 

e|----------------------------------------------------------------|

B|------13----------------------------------------------------13--|

G|--10--------10--10--------------10--10--12--13--12--10----------|

D|--------------------13------13--------------------------13------|

A|----------------------------------------------------------------|

E|----------------------------------------------------------------|

 

GUITAR 1:

 

e|-----------------------------------|

B|-----------------------------------|

G|--6------8------10---12---13---17--|

D|--6------8-------------------------|

A|--4------6------8----10---11---15--|

E|-----------------------------------|

 

GUITAR 2:

 

e|------------------------------------------------------------------------------------|

B|----------13------------------------------------------------------13--13----13------|

G|------10--------10----10----------10--10------10--10--13--13--13--------------------|

D|--13----------------------13--13------------------------------------------------13--|

A|------------------------------------------------------------------------------------|

E|------------------------------------------------------------------------------------|

 

GUITAR 1:

 

e|---------------------------------------|

B|---------------------------------------|

G|--6------8------10------13--12--10--8--|

D|--6------8------10---------------------|

A|--4------6------8-------11--10--8---6--|

E|---------------------------------------|

 

GUITAR 2:

 

e|----------------------------------------------------------------|

B|------13----------------------------------------------------13--|

G|--10--------10--10--------------10--10--12--13--12--10----------|

D|--------------------13------13--------------------------13------|

A|----------------------------------------------------------------|

E|----------------------------------------------------------------|

 

GUITAR 1:

 

e|-----------------------------------|------------|

B|-----------------------------------|------------|

G|--6------8------10---13---17---20--|--6------8--|

D|--6------8-------------------------|--6------8--|

A|--4------6------8----11---15-------|--4------6--|

E|-----------------------------------|------------|

 

GUITAR 2:

 

e|--------------------------------------------------------------------------11--|--------------------------|

B|----------13------------------------------------------------13--13----13------|--------------------------|

G|------10--------10----10------------10--10--10--13--13--13--------------------|----------------------10--|

D|--13----------------------13----13--------------------------------------------|--13--13--13--10--13------|

A|------------------------------------------------------------------------------|--------------------------|

E|------------------------------------------------------------------------------|--------------------------|

 

 

Solo:

 

e|----------------------------------------|

B|----------------------------13--16--18--|

G|--------------13--------13--------------|

D|------13--15--------15------------------|

A|--15------------------------------------|

E|----------------------------------------|

 

e|------16--18-b--18-b--18-b--18-b-r--18--16------16--------------------------------|

B|--18----------------------------------------18------------------------------------|

G|------------------------------------------------------16--15--13--15--13------13--|

D|--------------------------------------------------------------------------15------|

A|----------------------------------------------------------------------------------|

E|----------------------------------------------------------------------------------|

 

 

Bridge/Puente:

 

GUITAR 2:

 

e|-----------------------------------------------|-------------------------------------------------------|

B|-----------------------------------------------|-------------------------------------------12--11------|

G|-----------------------------------------------|---------------------------------------------------13--|

D|--10--10--12--10--10---12--10--10--12--13--12--|--10--10--12--10--10---12--10--10--12--13--------------|

A|-----------------------------------------------|-------------------------------------------------------|

E|-----------------------------------------------|-------------------------------------------------------|

 

GUITAR 1:

 

e|--------------------|-----------------------------------------------------|

B|--9---9---9--9---9--|-----------------------------------------------------|

G|--8---8---8--8---8--|-----------------------------------------------------|

D|--6---6---6--6---6--|--3--x--x--x---x--x--x--x---x--x--x--x---x--x--x--x--|

A|--------------------|--3--x--x--x---x--x--x--x---x--x--x--x---x--x--x--x--|

E|--------------------|--1--x--x--x---x--x--x--x---x--x--x--x---x--x--x--x--|

 

GUITAR 2:

 

e|------------------------------------------|

B|------------------------------------------|

G|------------------------------------------|

D|--10---12---10---12---10--10--12--13--12--|

A|------------------------------------------|

E|------------------------------------------|

 

GUITAR 1:

 

e|-----------------------------------------------------|

B|-----------------------------------------------------|

G|-----------------------------------------------------|

D|--6--x--x--x---x--x--x--x---x--x--x--x---x--x--x--x--|

A|--6--x--x--x---x--x--x--x---x--x--x--x---x--x--x--x--|

E|--4--x--x--x---x--x--x--x---x--x--x--x---x--x--x--x--|

 

GUITAR 2:

 

e|---------------------------------------------------|

B|---------------------------------------------------|

G|---------------------------------------------------|

D|--10--10--12--10--10--10--12--10---10--12--13--12--|

A|---------------------------------------------------|

E|---------------------------------------------------|

 

GUITAR 1:

 

e|-----------------------------------------------------|

B|-----------------------------------------------------|

G|--6--x--x--x---x--x--x--x---x--x--x--x---x--x--x--x--|

D|--6--x--x--x---x--x--x--x---x--x--x--x---x--x--x--x--|

A|--4--x--x--x---x--x--x--x---x--x--x--x---x--x--x--x--|

E|-----------------------------------------------------|

 

GUITAR 2:

 

e|----------------------------------------------|

B|----------------------------------------------|

G|--10--10--12--10--12--10--10--10--12--13--12--|

D|----------------------------------------------|

A|----------------------------------------------|

E|----------------------------------------------|

 

GUITAR 1:

 

e|-----------------------------------------------------|------------------|

B|-----------------------------------------------------|--13--15--16--17--|

G|--8--x--x--x---x--x--x--x---x--x--x--x---x--x--x--x--|------------------|

D|--8--x--x--x---x--x--x--x---x--x--x--x---x--x--x--x--|------------------|

A|--6--x--x--x---x--x--x--x---x--x--x--x---x--x--x--x--|------------------|

E|-----------------------------------------------------|------------------|

 

GUITAR 2:

 

e|----------------------------------------|

B|------11--11----------------------------|

G|--10------------10------10--13--10--13--|

D|--------------------13------------------|

A|----------------------------------------|

E|----------------------------------------|

 

GUITAR 1:

 

e|-----------------------------|

B|--9--9--9---9---9--9---9--9--|

G|--8--8--8---8---8--8---8--8--|

D|--7--7--7---7---7--7---7--7--|

A|--8--8--8---8---8--8---8--8--|

E|-----------------------------|

 

GUITAR 2:

 

e|---------------------------------------------------|

B|---------------------------------------------------|

G|------10--10--10--10---------------10--10--10--10--|

D|--13------------------13---13--13------------------|

A|---------------------------------------------------|

E|---------------------------------------------------|

 

 

Chorus/Estribillo:

 

GUITAR 1:

 

e|---------------------------------------|

B|---------------------------------------|

G|--6------8------10------13--12--10--8--|

D|--6------8------10---------------------|

A|--4------6------8-------11--10--8---6--|

E|---------------------------------------|

 

GUITAR 2:

 

e|----------------------------------------------------------------|

B|------13----------------------------------------------------13--|

G|--10--------10--10--------------10--10--12--13--12--10----------|

D|--------------------13------13--------------------------13------|

A|----------------------------------------------------------------|

E|----------------------------------------------------------------|

 

GUITAR 1:

 

e|-----------------------------------|

B|-----------------------------------|

G|--6------8------10---12---13---17--|

D|--6------8-------------------------|

A|--4------6------8----10---11---15--|

E|-----------------------------------|

 

GUITAR 2:

 

e|------------------------------------------------------------------------------------|

B|----------13------------------------------------------------------13--13----13------|

G|------10--------10----10----------10--10------10--10--13--13--13--------------------|

D|--13----------------------13--13------------------------------------------------13--|

A|------------------------------------------------------------------------------------|

E|------------------------------------------------------------------------------------|

 

GUITAR 1:

 

e|---------------------------------------|

B|---------------------------------------|

G|--6------8------10------13--12--10--8--|

D|--6------8------10---------------------|

A|--4------6------8-------11--10--8---6--|

E|---------------------------------------|

 

GUITAR 2:

 

e|---------------------------------------------------------------------------|

B|------13---------------------------------------------------------------13--|

G|--10--------10---10--10--------------10--10----10--12--13--12--10----------|

D|-------------------------13--13--13--------------------------------13------|

A|---------------------------------------------------------------------------|

E|---------------------------------------------------------------------------|

 

GUITAR 1:

 

e|-----------------------------------|------------|

B|-----------------------------------|------------|

G|--6------8------10---13---17---20--|--6------8--|

D|--6------8-------------------------|--6------8--|

A|--4------6------8----11---15-------|--4------6--|

E|-----------------------------------|------------|

 

GUITAR 2:

 

e|-------------------------------------------------------------------------------------------11--|

B|----------13-----------------------------------------------------------------13--13----13------|

G|------10--------10---10--10----------10--10--------10--10--10----13--13--13--------------------|

D|--13-------------------------13--13------------13----------------------------------------------|

A|-----------------------------------------------------------------------------------------------|

E|-----------------------------------------------------------------------------------------------|

 

 

Outro:

 

GUITAR 2:

 

e|--------------------------------------------------|

B|--------------11------11--12--11------------------|

G|------10--13------13--------------13--10------10--|

D|--13--------------------------------------13------|

A|--------------------------------------------------|

E|--------------------------------------------------|

 

GUITAR 1:

 

e|-------------------------------------|-------------------------------|

B|-------------------------------------|-------------------------------|

G|-------------------------------------|-------------------------------|

D|--3--3--3---6----3---3--3----6----8--|--3--3---6----3---3--3---6--8--|

A|--3--3--3---6----3---3--3----6----8--|--3--3---6----3---3--3---6--8--|

E|--1--1--1---4----1---1--1----4----6--|--1--1---4----1---1--1---4--6--|

 

GUITAR 2:

 

e|--22-b-|-------------|

B|-------|---------11--|

G|-------|--10---------|

D|-------|------8------|

A|-------|-------------|

E|-------|-------------|

 

GUITAR 1:

 

e|-----------------------------------|

B|-----------------------------------|

G|-----------------------------------|

D|--3--3--3---6----3---3--3---6---8--|

A|--3--3--3---6----3---3--3---6---8--|

E|--1--1--1---4----1---1--1---4---6--|

 

GUITAR 2:

 

e|--22-b-|

B|-------|

G|-------|

D|-------|

A|-------|

E|-------|

 

GUITAR 1:

 

e|-------------------------------|------------------------------------------------|------16--|

B|------9--11--11-b-r--9------9--|------------------------------------------------|--9-------|

G|--10--------------------10-----|--10--8-----------------------------------------|--8-------|

D|-------------------------------|---------10--8------8-h-10-p-8-----8------------|--7-------|

A|-------------------------------|----------------11--------------8-----8--11--8--|--8-------|

E|-------------------------------|------------------------------------------------|----------|

 

 

 

World is Mine - Tron544
00:00 / 00:00

©2019 by Fefe - Tron544

Sigueme en:

  • YouTube - White Circle
  • Facebook - White Circle
  • Instagram - White Circle
  • Twitter - White Circle
This site was designed with the
.com
website builder. Create your website today.
Start Now