~ WE WERE ANGELS ~

TABLATURAS ~ By Fefe - Tron544

 

Intro:

 

GUITAR 1:

 

e|-----|-----------------------------------------|

B|-----|-----------------------------------------|

G|-----|--7------9-------------------------------|

D|--4--|--7------9------4---------------------4--|

A|--4--|--5------7------4---------0--2--0-----4--|

E|--2--|----------------2---2--4-----------4--2--|

 

GUITAR 2:

 

e|---------|--------------9---7------------|

B|--9---7--|--10---------------------9--7--|

G|---------|-------7------6---4------------|

D|--6---4--|--7----------------------6--4--|

A|---------|-------5-----------------------|

E|---------|-------------------------------|

 

GUITAR 3:

 

e|---------|-----------------------------------------------------------------------------------------|

B|---------|-----------------------------------------------------------------------------------------|

G|---------|-------------------------------------------------4-----2-----4------------2--4--2--------|

D|--6---4--|-----7-----6-----7---------7-----6-----7------2-----2-----2-----4---4--6-----------6--4--|

A|---------|--4-----4-----4-----5---5-----5-----5-----7----------------------------------------------|

E|---------|-----------------------------------------------------------------------------------------|

 

GUITAR 1:

 

e|------------------------------------------------|

B|------------------------------------------------|

G|--7------9------6------6------------------------|

D|--7------9------6------6---------------------4--|

A|--5------7------4------4---4--2--0--2--0-----4--|

E|------------------------------------------4--2--|

 

GUITAR 2:

 

e|--------------9---7------9----9--|

B|--10-----------------------------|

G|-------7------6---4------6----6--|

D|--7------------------------------|

A|-------5-------------------------|

E|---------------------------------|

 

GUITAR 3:

 

e|---------------------------------------------------------------------------------------------------------------|

B|---------------------------------------------------------------------------------------------------------------|

G|-------------------------------------------------4-----2-----4--6------------------4--6---6--4--2--4--2--------|

D|-----7-----6-----7---------7-----6-----7------2-----2-----2---------------4--6--7------------------------6--4--|

A|--4-----4-----4-----5---5-----5-----5-----7-------------------------6--7---------------------------------------|

E|---------------------------------------------------------------------------------------------------------------|

 

 

Verse/Estrofa:

 

GUITAR 1:

 

e|------------------------------------------------------------------------------------------------------|

B|------------------------------------------------------------------------------------------------------|

G|------------------------------------------------------------------------------------------------------|

D|--(4)-x--x--x--x--x--x--x---x--x--x--x--x--x--x--x---x--x--x--x--x--x--x--x---x--------------------4--|

A|--(4)-x--x--x--x--x--x--x---x--x--x--x--x--x--x--x---x--x--x--x--x--x--x--x---x--------0--2--0-----4--|

E|--(2)-x--x--x--x--x--x--x---x--x--x--x--x--x--x--x---x--x--x--x--x--x--x--x---x--2--4-----------4--2--|

 

GUITAR 2:

 

e|-------------------------------------------------|

B|-------------------------------------------------|

G|-------------------------------------4-----------|

D|--4--6--7---4--4--4--6--7---6--6--7-----7--4--4--|

A|-------------------------------------------------|

E|-------------------------------------------------|

 

GUITAR 3:

 

e|--9---|--10------12------9-------9---|

B|--10--|--10------12------10------10--|

G|--11--|--11------13------11------11--|

D|------|------------------------------|

A|------|------------------------------|

E|------|------------------------------|

 

GUITAR 1:

 

e|-------------------------------------------------------------------------------------------------|

B|-------------------------------------------------------------------------------------------------|

G|-------------------------------------------------------------------------------------------------|

D|--(4)-x--x--x--x--x--x--x---x--x--x--x--x--x--x--x---x--x--x--x--x--x--x--x---x--x--x--x--x---6--|

A|--(4)-x--x--x--x--x--x--x---x--x--x--x--x--x--x--x---x--x--x--x--x--x--x--x---x--x--x--x--x---6--|

E|--(2)-x--x--x--x--x--x--x---x--x--x--x--x--x--x--x---x--x--x--x--x--x--x--x---x--x--x--x--x---4--|

 

GUITAR 2:

 

e|----------------------------------------------|

B|----------------------------------------------|

G|----------------------------------4-----------|

D|--4--6--7---4--4--4--6--7---6--7-----7--4--4--|

A|----------------------------------------------|

E|----------------------------------------------|

 

GUITAR 3:

 

e|--10------12------9-------7--|

B|--10------12------10------9--|

G|--11------13------11------8--|

D|-----------------------------|

A|-----------------------------|

E|-----------------------------|

 

GUITAR 1:

 

e|---------------------------------------------------------------------------------------------------------|

B|---------------------------------------------------------------------------------------------------------|

G|----------------------------(7)-x--x--x--x--x--x--x------------------------------------------------------|

D|--(7)-x--x--x--x--x--x--x---(7)-x--x--x--x--x--x--x---(2)-x--x--x--x--x--x--x---(7)-x--x--x--x--x--x--x--|

A|--(7)-x--x--x--x--x--x--x---(5)-x--x--x--x--x--x--x---(2)-x--x--x--x--x--x--x---(7)-x--x--x--x--x--x--x--|

E|--(5)-x--x--x--x--x--x--x-----------------------------(0)-x--x--x--x--x--x--x---(5)-x--x--x--x--x--x--x--|

 

GUITAR 2:

 

e|--------------------------------------------------------------|

B|--------------------------------------------------------------|

G|--9--9--9--9--9--9--9--11-------------------------------------|

D|---------------------------12--11--9---9--11--12--12--11--11--|

A|--------------------------------------------------------------|

E|--------------------------------------------------------------|

 

GUITAR 3:

 

e|---------------------------------------------------------------------------------------|

B|---------------------------------------------------------------------------------3--2--|

G|-----2-----4-----2---------2-----4-----2---------4-----6-----4---------2------2--------|

D|--2-----2-----2-----2---4-----4-----4-----4---2-----2-----2-----2---2-----2------------|

A|---------------------------------------------------------------------------------------|

E|---------------------------------------------------------------------------------------|

 

GUITAR 1:

 

e|---------------------------------------------------------------------------------------------------------|

B|---------------------------------------------------------------------------------------------------------|

G|----------------------------(7)-x--x--x--x--x--x--x------------------------------------------------------|

D|--(7)-x--x--x--x--x--x--x---(7)-x--x--x--x--x--x--x---(2)-x--x--x--x--x--x--x---(7)-x--x--x--x--x--x--x--|

A|--(7)-x--x--x--x--x--x--x---(5)-x--x--x--x--x--x--x---(2)-x--x--x--x--x--x--x---(7)-x--x--x--x--x--x--x--|

E|--(5)-x--x--x--x--x--x--x-----------------------------(0)-x--x--x--x--x--x--x---(5)-x--x--x--x--x--x--x--|

 

GUITAR 2:

 

e|-------------------------------------------------------------|

B|-------------------------------------------------------------|

G|-------------------------------------------------------------|

D|----------------------11--9--9------11--9--9--11--9----------|

A|--12--12--12--12--12------------12-------------------12--12--|

E|-------------------------------------------------------------|

 

GUITAR 3:

 

e|--------------------------------------------------------------------------------------|

B|--------------------------------------------------------------------------5--2--------|

G|-----2-----4-----2---------2-----4-----2---------4-----6-----4---------2--------4--2--|

D|--2-----2-----2-----2---4-----4-----4-----4---2-----2-----2-----2---------------------|

A|--------------------------------------------------------------------------------------|

E|--------------------------------------------------------------------------------------|

 

 

Pre-Chorus/Pre-Estribillo:

 

GUITAR 1:

 

e|---------------------------------------------------------------------------------------------------|

B|---------------------------------------------------------------------------------------------------|

G|------------------------------------------------------(5)-x--5--x--x--5--x--x---x--x--5--x--x------|

D|--(3)-x--3--x--x--3--x--x---(5)-x--5--x--x--5--x--x---(5)-x--5--x--x--5--x--x---x--x--5--x--x---5--|

A|--(3)-x--3--x--x--3--x--x---(5)-x--5--x--x--5--x--x---(3)-x--3--x--x--3--x--x---x--x--3--x--x---5--|

E|--(1)-x--1--x--x--1--x--x---(3)-x--3--x--x--3--x--x---------------------------------------------3--|

 

GUITAR 2:

 

e|--------------------------------------------------------|

B|--------------------------------------------------------|

G|---------------------------------------------9--10------|

D|--------------9--10--9-------10--10--10--12---------12--|

A|--12--12--12------------10------------------------------|

E|--------------------------------------------------------|

 

GUITAR 3:

 

e|--(5)-x--5--x--x--5--x--x---(7)-x--7--x--x--7--x--x---(8)-x--8--x--x--8--x--x---x--x--8--x--x---7--|

B|--(6)-x--6--x--x--6--x--x---(8)-x--8--x--x--8--x--x---(8)-x--8--x--x--8--x--x---x--x--8--x--x---8--|

G|--(5)-x--5--x--x--5--x--x---(7)-x--7--x--x--7--x--x---(9)-x--9--x--x--9--x--x---x--x--9--x--x---7--|

D|---------------------------------------------------------------------------------------------------|

A|---------------------------------------------------------------------------------------------------|

E|---------------------------------------------------------------------------------------------------|

 

GUITAR 1:

 

e|----------------(7)-x--7---x--x--7---x--7---x--x--x--x--x--x--7--|

B|----------------(9)-x--10--x--x--10--x--9---x--x--x--x--x--x--9--|

G|----------------(9)-x--9---x--x--9---x--9---x--x--x--x--x--x--9--|

D|--3------5------(9)-x--9---x--x--9---x--9---x--x--x--x--x--x--9--|

A|--3------5------(7)-x--7---x--x--7---x--7---x--x--x--x--x--x--7--|

E|--1------3-------------------------------------------------------|

 

GUITAR 2:

 

e|----------------------------------------------------------------------|

B|----------------------------------------------------------------------|

G|---------------------------------9------9------11--9------------------|

D|------9--10--9--9--9--9--10--12------------11-------------14--12--11--|

A|--12------------------------------------------------------------------|

E|----------------------------------------------------------------------|

 

GUITAR 3:

 

e|--5------7------(4)-x--5--x--x--5--x--4---x--x--x--x--x--x--4--|

B|--6------8------(5)-x--5--x--x--5--x--5---x--x--x--x--x--x--5--|

G|--5------7------(4)-x--4--x--x--4--x--4---x--x--x--x--x--x--4--|

D|---------------------------------------------------------------|

A|---------------------------------------------------------------|

E|---------------------------------------------------------------|

 

 

Chorus/Estribillo:

 

GUITAR 1:

 

e|--------------------------------------------------------------------------------------------------------|

B|--------------------------------------------------------------------------------------------------------|

G|---------------------------7--x--x--7--x--x--7--x---9--x--x--9--x--x--9--x---11--x--x--11--x--x---9--x--|

D|--7--x--x--7--x--x--7--x---7--x--x--7--x--x--7--x---9--x--x--9--x--x--9--x---11--x--x--11--x--x---9--x--|

A|--7--x--x--7--x--x--7--x---5--x--x--5--x--x--5--x---7--x--x--7--x--x--7--x---9---x--x--9---x--x---7--x--|

E|--5--x--x--5--x--x--5--x--------------------------------------------------------------------------------|

 

GUITAR 2:

 

e|--------------------------------------------------------------------|

B|--------------------------------------------------------------------|

G|--------------11----------------------------------------------------|

D|--11--12--14-------12--11--------------------------14--11---11------|

A|---------------------------14--14--14--14--14--14---------------14--|

E|--------------------------------------------------------------------|

 

GUITAR 1:

 

e|--------------------------------------------------------------------------------7---7---7--7--7--|

B|--------------------------------------------------------------------------------10--10--9--9--9--|

G|--(7)-x--7--x--x--7--x--x---(6)-x--6--x--x--6--x--x-----------------------------9---9---9--9--9--|

D|--(7)-x--7--x--x--7--x--x---(7)-x--7--x--x--7--x--x---(9)-x--9--x--x--9--x--x---9---9---9--9--9--|

A|--(5)-x--5--x--x--5--x--x---(4)-x--4--x--x--4--x--x---(9)-x--9--x--x--9--x--x---7---7---7--7--7--|

E|------------------------------------------------------(7)-x--7--x--x--7--x--x--------------------|

 

GUITAR 2:

 

e|--------------------------------------------------------------------|

B|--------------------------------------------------------------------|

G|--------------------------------------------------------------------|

D|----------------------------------11--------------------14--12--11--|

A|--12--12--12--12--12--12--11--12------14--14--12--14----------------|

E|--------------------------------------------------------------------|

 

GUITAR 1:

 

e|----------------------------------------------------------------------------------------------|

B|----------------------------------------------------------------------------------------------|

G|---------------------------7--x--x--7--x--x--7--x---(6)-x--6----------------------------------|

D|--7--x--x--7--x--x--7--x---7--x--x--7--x--x--7--x---(6)-x--6---(3)-x--3---(4)-x--4--x--x---2--|

A|--7--x--x--7--x--x--7--x---5--x--x--5--x--x--5--x---(4)-x--4---(3)-x--3---(4)-x--4--x--x---2--|

E|--5--x--x--5--x--x--5--x---------------------------------------(1)-x--1---(2)-x--2--x--x---0--|

 

GUITAR 2:

 

e|--------------------------------------------------------------------|

B|--------------------------------------------------------------------|

G|--------------11---11--11--10--10--10--10--10--11--13--14---14--13--|

D|--11--12--14--------------------------------------------------------|

A|--------------------------------------------------------------------|

E|--------------------------------------------------------------------|

 

GUITAR 1:

 

e|--------------------------------------------------------------------------------------------|

B|--------------------------------------------------------------------------------------------|

G|--(7)-x--7--x--x--7--x--x---(6)-x--6--x--x--6--x--x-----------------------------9--9--9--9--|

D|--(7)-x--7--x--x--7--x--x---(7)-x--7--x--x--7--x--x---(9)-x--9--x--x--9--x--x---9--9--9--9--|

A|--(5)-x--5--x--x--5--x--x---(4)-x--4--x--x--4--x--x---(9)-x--9--x--x--9--x--x---7--7--7--7--|

E|------------------------------------------------------(7)-x--7--x--x--7--x--x---------------|

 

GUITAR 2:

 

e|---------------------------------------------------------------|

B|---------------------------------------------------------------|

G|--11--13--14----------13--14--14----------------9------9-/-11--|

D|--------------14--14--------------12--11-----------11----------|

A|------------------------------------------14-------------------|

E|---------------------------------------------------------------|

 

 

Outro:

 

GUITAR 1:

 

e|-----|

B|-----|

G|-----|

D|--4--|

A|--4--|

E|--2--|

 

GUITAR 2:

 

e|---------|

B|--9---7--|

G|---------|

D|--6---4--|

A|---------|

E|---------|

 

GUITAR 3:

 

e|--------|

B|--------|

G|--------|

D|--6--4--|

A|--------|

E|--------|

 

 

GUITAR 1:

 

e|------------------------------------------------|

B|------------------------------------------------|

G|--7------9------6------6------------------------|

D|--7------9------6------6---------------------4--|

A|--5------7------4------4---4--2--0--2--0-----4--|

E|------------------------------------------4--2--|

 

GUITAR 2:

 

e|--------------9---7------9----9--|

B|--10-----------------------------|

G|-------7------6---4------6----6--|

D|--7------------------------------|

A|-------5-------------------------|

E|---------------------------------|

 

GUITAR 3:

 

e|---------------------------------------------------------------------------------------------------------------|

B|---------------------------------------------------------------------------------------------------------------|

G|-------------------------------------------------4-----2-----4--6------------------4--6---6--4--2--4--2--------|

D|-----7-----6-----7---------7-----6-----7------2-----2-----2---------------4--6--7------------------------6--4--|

A|--4-----4-----4-----5---5-----5-----5-----7-------------------------6--7---------------------------------------|

E|---------------------------------------------------------------------------------------------------------------|

 

  

We Were Angels - Tron544
00:00 / 00:00

©2019 by Fefe - Tron544

Sigueme en:

  • YouTube - White Circle
  • Facebook - White Circle
  • Instagram - White Circle
  • Twitter - White Circle
This site was designed with the
.com
website builder. Create your website today.
Start Now