WE'RE THE RIVER CITY GIRLS

RIVER CITY GIRLS

TABS ~ By Fefe (Tron544)

 ​

Intro:

GUITAR (Rhythm):

  /~~~~~~~~( REPEAT x3 / REPITE x3 )~~~~~~~~\
e|-------------------------------------------|-----------------------------|
B|--10-10--10-10--10-10--10-10--10-10-10-10--|--8-8--8-8--8-8--------------|
G|-------------------------------------------|-----------------------------|
D|--7--7---7--7---7--7---7--7---7--7--7--7---|--5-5--5-5--5-5--------------|
A|-------------------------------------------|-----------------------------|
E|-------------------------------------------|----------------\-PICK-SLIDE-|

GUITAR (Lead):

  /~~~~~( REPEAT x3 / REPITE x3 )~~~\
e|-----------------------------------|-------------------------------|
B|-----------------------------------|-------------------------------|
G|-----------------------------------|-------------------------------|
D|-----------------------------------|-------------------------------|
A|--0-0-7-0-7-7-0-0-5-5-5-3-3-3-2-3--|--0-0-7-0-7-7-0-0--------------|
E|-----------------------------------|------------------\-PICK-SLIDE-|

BASS:

  /~~~~~( REPEAT x4 / REPITE x4 )~~~\
G|-----------------------------------|
D|-----------------------------------|
A|--0-0-7-0-7-7-0-0-5-5-5-3-3-3-2-3--|
E|-----------------------------------|

GUITAR (Vocals):

e|--------------------------------------------------|
B|--------------------------------------------------|
G|----9--9------9/10----9----9--9------9/10----9----|
D|----------10---------------------10---------------|
A|--------------------------------------------------|
E|--------------------------------------------------|

GUITAR (Rhythm):

e|-----------------------------------------------------------|
B|-----------------------------------------------------------|
G|-----------------------------------------------------------|
D|--7--7-7--7-7-7-7--7-7--7-7-7-3--3-3--3-3-3-3--3-3--3-3-3--|
A|--7--7-7--7-7-7-7--7-7--7-7-7-3--3-3--3-3-3-3--3-3--3-3-3--|
E|--5--5-5--5-5-5-5--5-5--5-5-5-1--1-1--1-1-1-1--1-1--1-1-1--|

GUITAR (Lead):

e|------------------------------------------------------------------------------------|
B|--10-10-10-10-10-10-10-10-10-10-10-10-10-10-10-10--6-6-6-6-6-6-6-6-6-6-6-6-6-6-6-6--|
G|------------------------------------------------------------------------------------|
D|--7--7--7--7--7--7--7--7--7--7--7--7--7--7--7--7---3-3-3-3-3-3-3-3-3-3-3-3-3-3-3-3--|
A|------------------------------------------------------------------------------------|
E|------------------------------------------------------------------------------------|

BASS:

G|----------------------------------------------------------------------|
D|----------------------------------------------------------------------|
A|----------------------------------------------------------------------|
E|--5-5-5-5-5-5-5-5--5-5-5-5-5-5-5-5--1-1-1-1-1-1-1-1--1-1-1-1-1-1-1-1--|

GUITAR (Vocals):

e|---------------------------------------------------|
B|---------------10---------------------10--13--9----|
G|----12--12--9--------12----9----12-----------------|
D|---------------------------------------------------|
A|---------------------------------------------------|
E|---------------------------------------------------|

GUITAR (Rhythm):

e|-----------------------------------------------------------|
B|-----------------------------------------------------------|
G|--5--5-5--5-5-5-5--5-5--5-5-5------------------------------|
D|--5--5-5--5-5-5-5--5-5--5-5-5-2--2-2--2-2-2-6--6-6--6-6-6--|
A|--3--3-3--3-3-3-3--3-3--3-3-3-2--2-2--2-2-2-7--7-7--7-7-7--|
E|------------------------------0--0-0--0-0-0-4--4-4--4-4-4--|

GUITAR (Lead):

e|--------------------------------------------------------------------|
B|-----------------------------------5-5-5-5-5-5-5-5-9-9-9-9-9-9-9-9--|
G|--5-5-5-5-5-5-5-5-5-5-5-5-5-5-5-5-----------------------------------|
D|-----------------------------------2-2-2-2-2-2-2-2-6-6-6-6-6-6-6-6--|
A|--3-3-3-3-3-3-3-3-3-3-3-3-3-3-3-3-----------------------------------|
E|--------------------------------------------------------------------|

BASS:

G|--------------------------------------------------------------------|
D|--------------------------------------------------------------------|
A|--3-3-3-3-3-3-3-3-3-3-3-3-3-3-3-3-----------------------------------|
E|-----------------------------------0-0-0-0-0-0-0-0-4-4-4-4-4-4-4-4--|

GUITAR (Vocals):

e|--------------------------------------------------|
B|--------------------------------------------------|
G|----9--9------9/10----9----9--9------9/10----9----|
D|----------10---------------------10---------------|
A|--------------------------------------------------|
E|--------------------------------------------------|

GUITAR (Rhythm):

e|-----------------------------------------------------------|
B|-----------------------------------------------------------|
G|-----------------------------------------------------------|
D|--7--7-7--7-7-7-7--7-7--7-7-7-3--3-3--3-3-3-3--3-3--3-3-3--|
A|--7--7-7--7-7-7-7--7-7--7-7-7-3--3-3--3-3-3-3--3-3--3-3-3--|
E|--5--5-5--5-5-5-5--5-5--5-5-5-1--1-1--1-1-1-1--1-1--1-1-1--|

GUITAR (Lead):

e|------------------------------------------------------------------------------------|
B|--10-10-10-10-10-10-10-10-10-10-10-10-10-10-10-10--6-6-6-6-6-6-6-6-6-6-6-6-6-6-6-6--|
G|------------------------------------------------------------------------------------|
D|--7--7--7--7--7--7--7--7--7--7--7--7--7--7--7--7---3-3-3-3-3-3-3-3-3-3-3-3-3-3-3-3--|
A|------------------------------------------------------------------------------------|
E|------------------------------------------------------------------------------------|

BASS:

G|----------------------------------------------------------------------|
D|----------------------------------------------------------------------|
A|----------------------------------------------------------------------|
E|--5-5-5-5-5-5-5-5--5-5-5-5-5-5-5-5--1-1-1-1-1-1-1-1--1-1-1-1-1-1-1-1--|

GUITAR (Vocals):

e|-----------------------------------------------------|
B|---------------10-----------------------10----9--10--|
G|----12--12--9--------12--12--9----12-----------------|
D|-----------------------------------------------------|
A|-----------------------------------------------------|
E|-----------------------------------------------------|

GUITAR (Rhythm):

e|-----------------------------------------------------------|
B|-----------------------------------------------------------|
G|--5--5-5--5-5-5-5--5-5--5-5-5------------------------------|
D|--5--5-5--5-5-5-5--5-5--5-5-5-2--2-2--2-2-2-6--6-6--6-6-6--|
A|--3--3-3--3-3-3-3--3-3--3-3-3-2--2-2--2-2-2-7--7-7--7-7-7--|
E|------------------------------0--0-0--0-0-0-4--4-4--4-4-4--|

GUITAR (Lead):

e|--------------------------------------------------------------------|
B|-----------------------------------5-5-5-5-5-5-5-5-9-9-9-9-9-9-9-9--|
G|--5-5-5-5-5-5-5-5-5-5-5-5-5-5-5-5-----------------------------------|
D|-----------------------------------2-2-2-2-2-2-2-2-6-6-6-6-6-6-6-6--|
A|--3-3-3-3-3-3-3-3-3-3-3-3-3-3-3-3-----------------------------------|
E|--------------------------------------------------------------------|

BASS:

G|--------------------------------------------------------------------|
D|--------------------------------------------------------------------|
A|--3-3-3-3-3-3-3-3-3-3-3-3-3-3-3-3-----------------------------------|
E|-----------------------------------0-0-0-0-0-0-0-0-4-4-4-4-4-4-4-4--|

We're the River City Girls - Tron544
00:00 / 00:00
DONATE%20BUTTON%20(EN)_edited.png

Interlude/Interludio:

GUITAR (Rhythm):

e|--5----------------1----------------3----------------0----------------|
B|--5----------------1----------------5----------------0----------------|
G|--5----------------2----------------5----------------1----------------|
D|--7----------------3----------------5----------------2----------------|
A|--7----------------3----------------3----------------2----------------|
E|--5----------------1---------------------------------0----------------|

GUITAR (Lead):

e|----------------------------------------------------------------------|
B|----------------------------------------------------------------------|
G|----------------------------------------------------------------------|
D|----------------------------------------------------------------------|
A|----------------------------------------------------------------------|
E|---------------------------------------------------------\-PICK-SLIDE-|

BASS:

G|------------------------------------------------------------------------------|
D|------------------------------------------------------------------------------|
A|----------------------------8--8--7--5--3----------------------------------2--|
E|--5----------------1-------------------------------------0--------4--0--4-----|

 


Verse/Estrofa:

GUITAR (Rhythm):

e|-----------------------------------------------------------------------|
B|-----------------------------------------------------------------------|
G|-----------------------------------------------------------------------|
D|--(7)-x-x-x-x-x-x-x-x-x-x-x-x-x-x-x-(3)-x-x-x-x-x-x-x-x-3-x-x-3-x-3-x--|
A|--(7)-x-x-x-x-x-x-x-x-x-x-x-x-x-x-x-(3)-x-x-x-x-x-x-x-x-3-x-x-3-x-3-x--|
E|--(5)-x-x-x-x-x-x-x-x-x-x-x-x-x-x-x-(1)-x-x-x-x-x-x-x-x-1-x-x-1-x-1-x--|

BASS:

G|--------------------------------------------------------------------|
D|--------------------------------------------------------------------|
A|--------------------------------------------------------------------|
E|--5-5-5-5-5-5-5-5-5-5-5-5-5-5-5-5--1-1-1-1-1-1-1-1-1-1-1-1-1-1-1-1--|

GUITAR (Rhythm):

e|-----------------------------------------------------------------------|
B|-----------------------------------------------------------------------|
G|--(5)-x-x-x-x-x-x-x-x-x-x-x-x-x-x-x------------------------------------|
D|--(5)-x-x-x-x-x-x-x-x-x-x-x-x-x-x-x-(2)-x-x-x-x-x-x-x-2-2-2-2-2-2-2-2--|
A|--(3)-x-x-x-x-x-x-x-x-x-x-x-x-x-x-x-(2)-x-x-x-x-x-x-x-2-2-2-2-2-2-2-2--|
E|------------------------------------(0)-x-x-x-x-x-x-x-0-0-0-0-0-0-0-0--|

BASS:

G|--------------------------------------------------------------------|
D|--------------------------------------------------------------------|
A|--3-3-3-3-3-3-3-3-3-3-3-3-3-3-3-3-----------------------------------|
E|-----------------------------------0-0-0-0-0-0-0-0-0-0-0-0-0-0-0-0--|

 


Pre-Chorus/Pre-Estribillo:

GUITAR (Rhythm):

e|--------------------------------------|
B|--------------------------------------|
G|--------------------------------------|
D|--3--------5--------7--------5--------|
A|--3--------5--------7--------5--------|
E|--1--------3--------5--------3--------|

GUITAR (Lead):

e|--8---------7---8-----8---------10---8---7--|
B|------8-------------------8-----------------|
G|--------------------------------------------|
D|--------------------------------------------|
A|--------------------------------------------|
E|--------------------------------------------|

BASS:

G|---------------------------------------------------|
D|---------------------------------------------------|
A|---------------------------------------------------|
E|--1---1--1--1-3---3--3--3-5---5--5--5-3---3--3--3--|

GUITAR (Rhythm):

e|----------------------------------------------|
B|----------------------------------------------|
G|----------------------------------------------|
D|--3--------5--------(2)-x-x-x-2-2-2-2---------|
A|--3--------5--------(2)-x-x-x-2-2-2-2---------|
E|--1--------3--------(0)-x-x-x-0-0-0-0---------|

GUITAR (Lead):

e|--8---------7---8-------------12---------|
B|------8-----------------------15-b-------|
G|-----------------------------------------|
D|-----------------------------------------|
A|-----------------------------------------|
E|-----------------------------------------|

BASS:

G|---------------------------------------------------|
D|---------------------------------------------------|
A|---------------------------------------------------|
E|--1---1--1--1-3---3--3--3--0-0-0-0-0-0-0-0---------|

 


Chorus/Estribillo:

GUITAR (Rhythm):

e|--------------------------------------------------------------|
B|--------------------------------------------------------------|
G|--------------------------------5--5-5-5-5-5------------------|
D|--7--7-7-7-7-7-3--3-3-3-3-3-3-3-5--5-5-5-5-5-5--5-5-6--6-6-6--|
A|--7--7-7-7-7-7-3--3-3-3-3-3-3-3-3--3-3-3-3-3-5--5-5-6--6-6-6--|
E|--5--5-5-5-5-5-1--1-1-1-1-1-1-1--------------3--3-3-4--4-4-4--|

GUITAR (Lead):

e|----------------------------------------------------|
B|----------------------------------------------------|
G|--5--5--4-5--7---7--5-7---9--9--9-10-9-7--7--5--4---|
D|----------------------------------------------------|
A|--3--3--2-3--5---5--3-5---7--7--7-8--7-5--5--3--2---|
E|----------------------------------------------------|

BASS:

G|--------------------------------------------------------------|
D|--------------------------------------------------------------|
A|--------------------------------3--3-3-3-3-3------------------|
E|--5--5-5-5-5-5-1--1-1-1-1-1-1-1--------------3--3-3-4--4-4-4--|

GUITAR (Rhythm):

e|-----------------------------------------------------------------|
B|-----------------------------------------------------------------|
G|-----------------------------------------------------------------|
D|--7--7-7-7-7-7-3--3-3-3-3-3-3-3-5-5-5-5-5-5-5-5-5-5-5-5-5-5-5-5--|
A|--7--7-7-7-7-7-3--3-3-3-3-3-3-3-5-5-5-5-5-5-5-5-5-5-5-5-5-5-5-5--|
E|--5--5-5-5-5-5-1--1-1-1-1-1-1-1-3-3-3-3-3-3-3-3-3-3-3-3-3-3-3-3--|

GUITAR (Lead):

e|-----------------------------------------------------------|
B|-----------------------------------------------------------|
G|--5--5--4-5--7---7--5-7---5-5-5-5-5-5-5-5-4-4-4-4-4-4-4-4--|
D|-----------------------------------------------------------|
A|--3--3--2-3--5---5--3-5---3-3-3-3-3-3-3-3-2-2-2-2-2-2-2-2--|
E|-----------------------------------------------------------|

BASS:

G|-----------------------------------------------------------------|
D|-----------------------------------------------------------------|
A|-----------------------------------------------------------------|
E|--5--5-5-5-5-5-1--1-1-1-1-1-1-1-3-3-3-3-3-3-3-3-3-3-3-3-3-3-3-3--|

GUITAR (Rhythm):

e|-----------------------------------------------------------|
B|-----------------------------------------------------------|
G|-----------------------------------------------------------|
D|--7--7--7-7-7-7-6--6--6-6-6-6-5--5--5-5-5-5-4--4--4-4-4-4--|
A|--7--7--7-7-7-7-7--7--7-7-7-7-5--5--5-5-5-5-5--5--5-5-5-5--|
E|--5--5--5-5-5-5-4--4--4-4-4-4-3--3--3-3-3-3-2--2--2-2-2-2--|

GUITAR (Lead):

e|-----------------------------------------------------------|
B|-----------------------------------------------------------|
G|--5--5--5-5-5-5-7--7--7-7-7-7-9--9--9-9-9-9-7--7--7-7-7-7--|
D|-----------------------------------------------------------|
A|--3--3--3-3-3-3-5--5--5-5-5-5-7--7--7-7-7-7-5--5--5-5-5-5--|
E|-----------------------------------------------------------|

BASS:

G|-----------------------------------------------------------|
D|-----------------------------------------------------------|
A|-----------------------------------------------------------|
E|--5--5--5-5-5-5-4--4--4-4-4-4-3--3--3-3-3-3-2--2--2-2-2-2--|

GUITAR (Rhythm):

e|-------------------------------------------------------|
B|-------------------------------------------------------|
G|----------------5--5--5-5-5-5--------------------------|
D|--3--3--3-3-3-3-5--5--5-5-5-5-2-2-2-2-2-2-2-2-2--------|
A|--3--3--3-3-3-3-3--3--3-3-3-3-2-2-2-2-2-2-2-2-2--------|
E|--1--1--1-1-1-1---------------0-0-0-0-0-0-0-0-0--------|

GUITAR (Lead):

e|-------------------------------------------------|
B|-------------------------------------------------|
G|--5--5--5-5-5-5-5--5--5-5-5-5-4-4-4-4-4-4-4-4-4--|
D|-------------------------------------------------|
A|--3--3--3-3-3-3-3--3--3-3-3-3-2-2-2-2-2-2-2-2-2--|
E|-------------------------------------------------|

BASS:

G|-------------------------------------------------------|
D|-------------------------------------------------------|
A|----------------3--3--3-3-3-3--------------------------|
E|--1--1--1-1-1-1---------------0-0-0-0-0-0-0-0-0--------|

 


Outro:

GUITAR (Vocals):

e|-------------------------------------------------|
B|-------------------------------------------------|
G|----9--9-9---7---5---4-5---9--9-9---7---5---4-5--|
D|-------------------------------------------------|
A|----7--7-7---5---3---2-3---7--7-7---5---3---2-3--|
E|-------------------------------------------------|

GUITAR (Rhythm):

e|-----------------------------------------------------------|
B|-----------------------------------------------------------|
G|-----------------------------------------------------------|
D|--7--7-7--7-7-7-7--7-7--7-7-7-3--3-3--3-3-3-3--3-3--3-3-3--|
A|--7--7-7--7-7-7-7--7-7--7-7-7-3--3-3--3-3-3-3--3-3--3-3-3--|
E|--5--5-5--5-5-5-5--5-5--5-5-5-1--1-1--1-1-1-1--1-1--1-1-1--|

GUITAR (Lead):

e|------------------------------------------------------------------------------------|
B|--10-10-10-10-10-10-10-10-10-10-10-10-10-10-10-10--6-6-6-6-6-6-6-6-6-6-6-6-6-6-6-6--|
G|------------------------------------------------------------------------------------|
D|--7--7--7--7--7--7--7--7--7--7--7--7--7--7--7--7---3-3-3-3-3-3-3-3-3-3-3-3-3-3-3-3--|
A|------------------------------------------------------------------------------------|
E|------------------------------------------------------------------------------------|

BASS:

G|----------------------------------------------------------------------|
D|----------------------------------------------------------------------|
A|----------------------------------------------------------------------|
E|--5-5-5-5-5-5-5-5--5-5-5-5-5-5-5-5--1-1-1-1-1-1-1-1--1-1-1-1-1-1-1-1--|

GUITAR (Vocals):

e|---------------------------------------------------------|
B|----8--8-8---10---8--------------------------------------|
G|------------------------4-4-4-4-4-4-4-4-4-4-4-4-4-4-4-4--|
D|----5--5-5---7----5--------------------------------------|
A|------------------------2-2-2-2-2-2-2-2-2-2-2-2-2-2-2-2--|
E|---------------------------------------------------------|

GUITAR (Rhythm):

e|-----------------------------------------------------------|----5------|
B|-----------------------------------------------------------|----5------|
G|--5--5-5--5-5-5-5--5-5--5-5-5------------------------------|----5------|
D|--5--5-5--5-5-5-5--5-5--5-5-5-2--2-2--2-2-2-6--6-6--6-6-6--|----7------|
A|--3--3-3--3-3-3-3--3-3--3-3-3-2--2-2--2-2-2-7--7-7--7-7-7--|----7------|
E|------------------------------0--0-0--0-0-0-4--4-4--4-4-4--|----5------|

GUITAR (Lead):

e|--------------------------------------------------------------------|------------|
B|-----------------------------------5-5-5-5-5-5-5-5-9-9-9-9-9-9-9-9--|----10------|
G|--5-5-5-5-5-5-5-5-5-5-5-5-5-5-5-5-----------------------------------|------------|
D|-----------------------------------2-2-2-2-2-2-2-2-6-6-6-6-6-6-6-6--|----7-------|
A|--3-3-3-3-3-3-3-3-3-3-3-3-3-3-3-3-----------------------------------|------------|
E|--------------------------------------------------------------------|------------|

BASS:

G|--------------------------------------------------------------------|-----------|
D|--------------------------------------------------------------------|-----------|
A|--3-3-3-3-3-3-3-3-3-3-3-3-3-3-3-3-----------------------------------|-----------|
E|-----------------------------------0-0-0-0-0-0-0-0-4-4-4-4-4-4-4-4--|----5------|

©2015 by Fefe - Tron544

Sigueme en:

  • YouTube - White Circle
  • Facebook - White Circle
  • Instagram - White Circle
  • Twitter - White Circle
This site was designed with the
.com
website builder. Create your website today.
Start Now