~ WE GOTTA POWER ~

TABLATURAS ~ By Fefe - Tron544

 

Intro:

 

GUITAR 1:

 

e|--------------------|--------------------------|

B|--------------------|--------------------------|

G|-------7----5----4--|--7--5--4-----------------|

D|--5-----------------|-----------7--5--4--------|

A|--------------------|--------------------7--5--|

E|--------------------|--------------------------|

 

GUITAR 2:

 

e|--------------------------------------------------------------|

B|--------------------------------------------------------------|

G|--------------12------12--14------14--16------16--19--19--19--|

D|--12--12--12------12----------12----------12------------------|

A|--------------------------------------------------------------|

E|--------------------------------------------------------------|

 

GUITAR 1:

 

e|------------------------------|---------------------------------------|

B|------------------------------|---------------------------------------|

G|------------------------------|---------------------------------------|

D|--5--5--5----5---5---5--5--5--|--5--5--5--5--5--5----5---5---5--5--5--|

A|--5--5--5----5---5---5--5--5--|--5--5--5--5--5--5----5---5---5--5--5--|

E|--3--3--3----3---3---3--3--3--|--3--3--3--3--3--3----3---3---3--3--3--|

 

GUITAR 2:

 

e|--------------------------------------|--------------------------------------------------|

B|--------------------------------------|--------------------------------------------------|

G|--12--12--12----12---12---12--12--12--|--12--12--12--12--12--12----12---12---12--12--12--|

D|--12--12--12----12---12---12--12--12--|--12--12--12--12--12--12----12---12---12--12--12--|

A|--10--10--10----10---10---10--10--10--|--10--10--10--10--10--10----10---10---10--10--10--|

E|--------------------------------------|--------------------------------------------------|

 

GUITAR 1:

 

e|-------------------------------|----------------------|

B|-------------------------------|----------------------|

G|------------5------5--5--5--5--|--5--4---------5---7--|

D|--5--5--5---5------5--5--5--5--|--------7--5---5---7--|

A|--5--5--5---3------3--3--3--3--|---------------3---5--|

E|--3--3--3----------------------|----------------------|

 

GUITAR 2:

 

e|----------------------------------------------------------------|--8--8--8---8--8--8--8----10--|

B|--8--8--8-------------------------------8---8------8--10--------|------------------------------|

G|-----------9---9--7--9--11---11--9--11---------11---------------|------------------------------|

D|----------------------------------------------------------5--5--|------------------------------|

A|----------------------------------------------------------------|------------------------------|

E|----------------------------------------------------------------|------------------------------|

 

 

Verse/Estrofa:

 

GUITAR 1:

 

e|---------------------------------------------|----------------------------------------------|

B|---------------------------------------------|----------------------------------------------|

G|------------------------7--x--x--7--x--x--7--|--5--x--x--5--x--x--5---12--11--9--11--9--11--|

D|--2--x--x--2--x--x--2---7--x--x--7--x--x--7--|--5--x--x--5--x--x--5-------------------------|

A|--2--x--x--2--x--x--2---5--x--x--5--x--x--5--|--3--x--x--3--x--x--3-------------------------|

E|--0--x--x--0--x--x--0------------------------|----------------------------------------------|

 

GUITAR 2:

 

e|-----------------------------------------|------|

B|-----------------------------------------|------|

G|-----------------------------------------|------|

D|-----------------------------------------|------|

A|-----------------------9--10--9----------|------|

E|--10--10--10--12--12-------------12--10--|--12--|

 

GUITAR 1:

 

e|-----------------------------------------------|----------------------------------------------------|

B|-----------------------------------------------|----------------------------------------------------|

G|------------7--x--x--7---5--x--x---7--x--x--7--|----------------------------------------------------|

D|--5--x--x---7--x--x--7---5--x--x---7--x--x--7--|--(2)-x-----(2)-x-----(2)-x------0------------------|

A|--5--x--x---5--x--x--5---3--x--x---5--x--x--5--|--(2)-x-----(2)-x-----(2)-x---2-----2--1---0--------|

E|--3--x--x--------------------------------------|--(0)-x--3--(0)-x--3--(0)-x-------------------3--0--|

 

GUITAR 2:

 

e|--------------------------------|----------|

B|--------------------------------|----------|

G|--------------------------------|----------|

D|------9--9----------------------|----------|

A|------------12---10--10--9------|----------|

E|--12------------------------10--|--10--12--|

 

GUITAR 1:

 

e|---------------------------------------------|----------------------------------------------|

B|---------------------------------------------|----------------------------------------------|

G|------------------------7--x--x--7--x--x--7--|--5--x--x--5--x--x--5---12--11--9--11--9--11--|

D|--2--x--x--2--x--x--2---7--x--x--7--x--x--7--|--5--x--x--5--x--x--5-------------------------|

A|--2--x--x--2--x--x--2---5--x--x--5--x--x--5--|--3--x--x--3--x--x--3-------------------------|

E|--0--x--x--0--x--x--0------------------------|----------------------------------------------|

 

GUITAR 2:

 

e|-----------------------------------------|----------|

B|-----------------------------------------|----------|

G|-----------------------------------------|----------|

D|-----------------------------------------|----------|

A|-----------------------9--10--9----------|----------|

E|--10--10--10--12--12-------------12--10--|--10--12--|

 

GUITAR 1:

 

e|-----------------------------------------------|----------------------------5--5--|

B|-----------------------------------------------|----------------------------5--5--|

G|------------7--x--x--7---5--x--x---7--x--x--7--|----------------------------7--7--|

D|--5--x--x---7--x--x--7---5--x--x---7--x--x--7--|--(2)-x--2--x--x--2--x--x---7--7--|

A|--5--x--x---5--x--x--5---3--x--x---5--x--x--5--|--(2)-x--2--x--x--2--x--x---5--5--|

E|--3--x--x--------------------------------------|--(0)-x--0--x--x--0--x--x---------|

 

GUITAR 2:

 

e|--------------------------------|----------|

B|--------------------------------|----------|

G|--------------------------------|----------|

D|------9--9----------------------|----------|

A|------------12---10--10--9------|----------|

E|--12------------------------10--|--10--12--|

 

 

Pre-Chorus/Pre-Estribillo:

 

GUITAR 1:

 

e|------------------------------------------------|---------------------------------------------|

B|------------------------------------------------|---------------------------------------------|

G|--5--x--x--5--x--x---7--x--x--7--x--x--7--x--7--|------------------------4--x--x--4--x--x--4--|

D|--5--x--x--5--x--x---7--x--x--7--x--x--7--x--7--|--5--x--x--5--x--x--5---4--x--x--4--x--x--4--|

A|--3--x--x--3--x--x---5--x--x--5--x--x--5--x--5--|--5--x--x--5--x--x--5---2--x--x--2--x--x--2--|

E|------------------------------------------------|--3--x--x--3--x--x--3------------------------|

 

GUITAR 2:

 

e|------------------------|-----------------|

B|------------------------|-----------------|

G|------------------------|-----------------|

D|--9------12--10--9------|--9-----------9--|

A|-----12-------------12--|------10--12-----|

E|------------------------|-----------------|

 

GUITAR 1:

 

e|------------------------------------------------|------------------------------------|

B|------------------------------------------------|------------------------------------|

G|--5--x--x--5--x--x---7--x--x--7--x--x--7--x--7--|------------------------------4--4--|

D|--5--x--x--5--x--x---7--x--x--7--x--x--7--x--7--|--5--x--x--x--x--x--x--x--x---4--4--|

A|--3--x--x--3--x--x---5--x--x--5--x--x--5--x--5--|--5--x--x--x--x--x--x--x--x---2--2--|

E|------------------------------------------------|--3--x--x--x--x--x--x--x--x---------|

 

GUITAR 2:

 

e|------------------------|-------------------------------|

B|------------------------|-------------------------------|

G|------------------------|-------------------------------|

D|--9------12--10--9------|------9--9--9--9--10--9--9--9--|

A|-----12-------------12--|--12---------------------------|

E|------------------------|-------------------------------|

 

 

Chorus/Estribillo:

 

GUITAR 1:

 

e|---------------------------------------------------|----------------------|

B|---------------------------------------------------|----------------------|

G|---------------------------------------------------|--7--9--9----7--4--4--|

D|--2--x--x--2--x--x--2--x---2--x--x--2--x--x--2--x--|--7--9--9----7--4--4--|

A|--2--x--x--2--x--x--2--x---2--x--x--2--x--x--2--x--|--5--7--7----5--2--2--|

E|--0--x--x--0--x--x--0--x---0--x--x--0--x--x--0--x--|----------------------|

 

GUITAR 2:

 

e|--------------------|------------------------|

B|--------------------|------------------------|

G|--12---11---9-------|------9--9--------------|

D|----------------12--|--12----------12--9--9--|

A|--------------------|------------------------|

E|--------------------|------------------------|

 

GUITAR 1:

 

e|------------------------------------------------|--------------------------------------------|

B|------------------------------------------------|--------------------------------------------|

G|------------------------------------------------|--4--4---7---9--9---------------------------|

D|--2--x--x--2--x--x--2--x---2--x--x--2--x--x--2--|--4--4---7---9--9---------------------------|

A|--2--x--x--2--x--x--2--x---2--x--x--2--x--x--2--|--2--2---5---7--7-------------10--9--7------|

E|--0--x--x--0--x--x--0--x---0--x--x--0--x--x--0--|--------------------7--10--7------------10--|

 

GUITAR 2:

 

e|--------------------|------------------|

B|--------------------|------------------|

G|--12---11---9-------|------------9--9--|

D|----------------12--|--9--9--12--------|

A|--------------------|------------------|

E|--------------------|------------------|

 

GUITAR 1:

 

e|------------------------------------------------------|---------------------------------------------|

B|------------------------------------------------------|---------------------------------------------|

G|------------------------------------------------------|--7--x--x--7--x--x--7---4--x--x--4--x--x--4--|

D|--10--x--x--10--x--x--10--x---10--x--x--10--x--x--10--|--7--x--x--7--x--x--7---4--x--x--4--x--x--4--|

A|--10--x--x--10--x--x--10--x---10--x--x--10--x--x--10--|--5--x--x--5--x--x--5---2--x--x--2--x--x--2--|

E|--8---x--x--8---x--x--8---x---8---x--x--8---x--x--8---|---------------------------------------------|

 

GUITAR 2:

 

e|---------------------------------|----------------------------|

B|---------------------------------|----------------------------|

G|--9--11--12--12--9----12--12--9--|--11--11--------11--11------|

D|---------------------------------|----------12------------12--|

A|---------------------------------|----------------------------|

E|---------------------------------|----------------------------|

 

GUITAR 1:

 

e|------------------------------------------------|---------------------------------------------------------------|

B|------------------------------------------------|---------------------------------------------------------------|

G|------------------------------------------------|--5--5--5---7--7--7---4--4--4--4----9---7----------------------|

D|--2--x--x--2--x--x--2--x---2--x--x--2--x--x--2--|--5--5--5---7--7--7---4--4--4--4------------9---9--8--7--5--2--|

A|--2--x--x--2--x--x--2--x---2--x--x--2--x--x--2--|--3--3--3---5--5--5---2--2--2--2----7---5----------------------|

E|--0--x--x--0--x--x--0--x---0--x--x--0--x--x--0--|--------------------------------------------7---7--6--5--3--0--|

 

GUITAR 2:

 

e|--------------------|--------------------------------------------|

B|--------------------|--------------------------------------------|

G|--12---11---9-------|-------------------------------11--11-h-12--|

D|----------------12--|--10--10--10--12--12--12--9-----------------|

A|--------------------|--------------------------------------------|

E|--------------------|--------------------------------------------|

 

GUITAR 1:

 

e|---------------------------------------------------|----------------------|

B|---------------------------------------------------|----------------------|

G|---------------------------------------------------|--7--9--9----7--4--4--|

D|--2--x--x--2--x--x--2--x---2--x--x--2--x--x--2--x--|--7--9--9----7--4--4--|

A|--2--x--x--2--x--x--2--x---2--x--x--2--x--x--2--x--|--5--7--7----5--2--2--|

E|--0--x--x--0--x--x--0--x---0--x--x--0--x--x--0--x--|----------------------|

 

GUITAR 2:

 

e|--------------------|------------------------|

B|--------------------|------------------------|

G|--12---11---9-------|------9--9--------------|

D|----------------12--|--12----------12--9--9--|

A|--------------------|------------------------|

E|--------------------|------------------------|

 

GUITAR 1:

 

e|------------------------------------------------|--------------------------------------------|

B|------------------------------------------------|--------------------------------------------|

G|------------------------------------------------|--4--4---7---9--9---------------------------|

D|--2--x--x--2--x--x--2--x---2--x--x--2--x--x--2--|--4--4---7---9--9---------------------------|

A|--2--x--x--2--x--x--2--x---2--x--x--2--x--x--2--|--2--2---5---7--7-------------10--9--7------|

E|--0--x--x--0--x--x--0--x---0--x--x--0--x--x--0--|--------------------7--10--7------------10--|

 

GUITAR 2:

 

e|--------------------|------------------|

B|--------------------|------------------|

G|--12---11---9-------|------------9--9--|

D|----------------12--|--9--9--12--------|

A|--------------------|------------------|

E|--------------------|------------------|

 

GUITAR 1:

 

e|------------------------------------------------------|---------------------------------------------|

B|------------------------------------------------------|---------------------------------------------|

G|------------------------------------------------------|--7--x--x--7--x--x--7---4--x--x--4--x--x--4--|

D|--10--x--x--10--x--x--10--x---10--x--x--10--x--x--10--|--7--x--x--7--x--x--7---4--x--x--4--x--x--4--|

A|--10--x--x--10--x--x--10--x---10--x--x--10--x--x--10--|--5--x--x--5--x--x--5---2--x--x--2--x--x--2--|

E|--8---x--x--8---x--x--8---x---8---x--x--8---x--x--8---|---------------------------------------------|

 

GUITAR 2:

 

e|---------------------------------|----------------------------|

B|---------------------------------|----------------------------|

G|--9--11--12--12--9----12--12--9--|--11--11--------11--11------|

D|---------------------------------|----------12------------12--|

A|---------------------------------|----------------------------|

E|---------------------------------|----------------------------|

 

GUITAR 1:

 

e|------------------------------------------------|--------------------------------------------------------------|

B|------------------------------------------------|--------------------------------------------------------------|

G|------------------------------------------------|--5--5--5---7--7--7---4--4--4--4----9---7---------------7--9--|

D|--2--x--x--2--x--x--2--x---2--x--x--2--x--x--2--|--5--5--5---7--7--7---4--4--4--4------------9---7---5---------|

A|--2--x--x--2--x--x--2--x---2--x--x--2--x--x--2--|--3--3--3---5--5--5---2--2--2--2----7---5---------------5--7--|

E|--0--x--x--0--x--x--0--x---0--x--x--0--x--x--0--|--------------------------------------------7---5---3---------|

 

GUITAR 2:

 

e|--------------------|--------------------------------------------|

B|--------------------|--------------------------------------------|

G|--12---11---9-------|-------------------------------11--11-h-12--|

D|----------------12--|--10--10--10--12--12--12--9-----------------|

A|--------------------|--------------------------------------------|

E|--------------------|--------------------------------------------|

 

  

We Gotta Power - Tron544
00:00 / 00:00

©2019 by Fefe - Tron544

Sigueme en:

  • YouTube - White Circle
  • Facebook - White Circle
  • Instagram - White Circle
  • Twitter - White Circle
This site was designed with the
.com
website builder. Create your website today.
Start Now