~ WE GO! ~

TABLATURAS ~ By Fefe - Tron544

 

Intro:

 

GUITAR 1:


e|--------------------------|
B|--------------------------|
G|--------------------------|

D|--7------5------3------5--|
A|--7------5------3------5--|

E|--5------3------1------3--|


GUITAR 2:


e|---------------------------------------|
B|------12------14-/-15--14--------------|
G|--14------14---------------14--11------|
D|-----------------------------------14--|
A|---------------------------------------|
E|---------------------------------------|


GUITAR 1:


e|--------------------------|

B|--------------------------|

G|--------------------------|

D|--7------5------3------5--|

A|--7------5------3------5--|

E|--5------3------1------3--|


GUITAR 2:


e|-----------------------------------12----12-/-15--|

B|------12------14-/-15--14-------------------------|

G|--14------14---------------14---------------------|

D|-------------------------------14-----------------|

A|--------------------------------------------------|

E|--------------------------------------------------|

 

GUITAR 1:

 

e|----------------------------------------------------------------------------------------|

B|----------------------------------------------------------------------------------------|

G|---------------------------------------------------------------------------10--9--9--9--|

D|--(7)-x--x--x--x--x--x---x--x--x--x--x--x--x--x---x--x--x--x--x--x--x--x----------------|

A|--(7)-x--x--x--x--x--x---x--x--x--x--x--x--x--x---x--x--x--x--x--x--x--x---8---7--7--7--|

E|--(5)-x--x--x--x--x--x---x--x--x--x--x--x--x--x---x--x--x--x--x--x--x--x----------------|

 

GUITAR 2:

 

e|--------------------------------------------------------|

B|----------------------------------15--14----------------|

G|------12--14------------12-h-14-----------14------------|

D|--14-----------12-h-14-------------------------15---14--|

A|--------------------------------------------------------|

E|--------------------------------------------------------|

 

GUITAR 1:

 

e|---------------------------------------------------------------------------------------|

B|---------------------------------------------------------------------------9--8--8--8--|

G|--(5)-x--x--x--x--x--x---x--x--x--x--x--x--x--x---x--x--x--x--x--x--x--x---------------|

D|--(5)-x--x--x--x--x--x---x--x--x--x--x--x--x--x---x--x--x--x--x--x--x--x---6--5--5--5--|

A|--(3)-x--x--x--x--x--x---x--x--x--x--x--x--x--x---x--x--x--x--x--x--x--x---------------|

E|---------------------------------------------------------------------------------------|

 

GUITAR 2:

 

e|----------------------------------------------------------------------------------------------|

B|--------------------------------------------------------------------------------12-h-14-h-15--|

G|--17--15--17------------15-h-17---15--14--------------------------12-h-14-h-15----------------|

D|---------------15-h-17--------------------17--14----12-h-14-h-15------------------------------|

A|----------------------------------------------------------------------------------------------|

E|----------------------------------------------------------------------------------------------|

 

GUITAR 1:

 

e|------------------------------|

B|------------------------------|

G|------------------------------|

D|--------------------3------5--|

A|--------3-----3--5-----5---5--|

E|--3--5-----5---------------3--|

 

GUITAR 2:

 

e|------|

B|------|

G|------|

D|------|

A|------|

E|--15--|

 

 

First Chorus/Primer Estribillo:

 

GUITAR 1:

 

e|----------------------------------------------------------------------------|

B|----------------------------------------------------------------------------|

G|----------------------------------------------------------------------------|

D|--3--x--x--x--x--1---2--x--x--x--x--2---2--#--#--5--#--#--7--#--#--5--#--#--|

A|--3--x--x--x--x--3---2--x--x--x--x--2---2--#--#--5--#--#--7--#--#--5--#--#--|

E|--1--x--x--x--x--3---0--x--x--x--x--0---0--#--#--3--#--#--5--#--#--3--#--#--|

 

GUITAR 2:

 

e|-------------------------------------------------------------------------------------------|

B|-------------------------------------------------------------------------------------------|

G|--12---------------12-------------------------------------------------------------12-/-14--|

D|------15--14-----------15--14-------14---12--14--12--14--12--14-----------12--14-----------|

A|--------------15---------------15--------------------------------15---15-------------------|

E|-------------------------------------------------------------------------------------------|

 

GUITAR 1:

 

e|------------------------------------------------------------------------------------|

B|------------------------------------------------------------------------------------|

G|------------------------------10--9---12--------------------------------------------|

D|--4--#--#--3--#--#---2--7--3--10--9---12---------------5---7--5------5--------------|

A|--4--#--#--3--#--#---2--7--3--8---7---10---------5--7------------7------7--5--------|

E|--2--#--#--1--#--#---0--5--1---------------5--8-------------------------------8--5--|

 

GUITAR 2:

 

e|--------------------------------|

B|--------------------------------|

G|--12-------------------12---14--|

D|--------------15--14------------|

A|------15--12--------------------|

E|--------------------------------|

 

 

Verse/Estrofa:

 

GUITAR 1:

 

e|-----------------------------------------|

B|-----------------------------------------|

G|-----------------------------------------|

D|--7--#--#--5--#--#--4--#--#--2--#--#--7--|

A|--7--#--#--5--#--#--4--#--#--2--#--#--7--|

E|--5--#--#--3--#--#--2--#--#--0--#--#--5--|

 

GUITAR 2:

 

e|------------------------------------------------|

B|------------------------------------------------|

G|------------------------------------------------|

D|----------11--12--14---12--11----------12-/-14--|

A|--12--14-----------------------14--12-----------|

E|------------------------------------------------|

 

GUITAR 1:

 

e|--------------------------------------------------------|

B|--------------------------------------------------------|

G|-----------------------------7--#--#--------------------|

D|--7--#--#--5--#--#--4--#--#--7--#--#--2--x--x--x--x--2--|

A|--7--#--#--5--#--#--4--#--#--5--#--#--2--x--x--x--x--2--|

E|--5--#--#--3--#--#--2--#--#-----------0--x--x--x--x--0--|

 

GUITAR 2:

 

e|----------------------------------------------------|

B|----------------------------------------------------|

G|----------------------------------------------------|

D|----------11--12--14---12--11-----------------------|

A|--12--14-----------------------12------14---12--14--|

E|-----------------------------------14---------------|

 

GUITAR 1:

 

e|-----------------------------------------------------------------------------|

B|-----------------------------------------------------------------------------|

G|---------------------8--x--x--x--x--8---4--x--x--x--x--4---6--#--#--7--#--#--|

D|--4--x--x--x--x--4---8--x--x--x--x--8---4--x--x--x--x--4---6--#--#--6--#--#--|

A|--4--x--x--x--x--4---6--x--x--x--x--6---2--x--x--x--x--2---4--#--#--5--#--#--|

E|--2--x--x--x--x--2-----------------------------------------------------------|

 

GUITAR 2:

 

e|------------------------------------------------------------|

B|------------------------------------------------------------|

G|----------------13--13--11----------------------------------|

D|--11--------11--------------11--11--13----------------------|

A|--------11------------------------------13--11------13--11--|

E|------------------------------------------------14----------|

 

GUITAR 1:

 

e|--------------------------------------------------------------------|

B|--------------------------------------------------------------------|

G|--8--x--x--x--x--8----------------------6--x--x--x--x--6---6--6--6--|

D|--8--x--x--x--x--8---6--x--x--x--x--6---6--x--x--x--x--6---6--6--6--|

A|--6--x--x--x--x--6---6--x--x--x--x--6---4--x--x--x--x--4---4--4--4--|

E|---------------------4--x--x--x--x--4-------------------------------|

 

GUITAR 2:

 

e|-----------------------------------------------------------------------------|

B|-----------------------------------------------------------------------------|

G|-----------------------------------------------------------------------------|

D|--------------------------13--13--13--11--10--10-h-13--11--11----11--11--11--|

A|------------------11---------------------------------------------------------|

E|--14--14--14--14------14-----------------------------------------------------|

 

 

Pre-Chorus/Pre-Estribillo:

 

GUITAR 1:

 

e|---------------------------|

B|---------------------------|

G|--8----------------8-------|

D|--8----------------8----8--|

A|--6----5-----------6----8--|

E|----------8--6--1-------6--|

 

GUITAR 2:

 

e|-----------------------------------------------------------------------------------------|

B|-----------------------------------------------------------------------------------------|

G|-----------------------------------------------------------------------------------------|

D|-----------------------13-/-15------------------------------------13-/-15----------------|

A|--13--13---13--13--13-----------13---15--15--13--13---13--13--13-----------13----13--12--|

E|-----------------------------------------------------------------------------------------|

 

GUITAR 1:

 

e|----------------------------------------------------------------------------|

B|----------------------------------------------------------------------------|

G|----------------------------------------------------------------------------|

D|--10--#--#--8--#--#--7--#--#--3--#--#---8--x--x--8--x--x--8--x--x--8--x--x--|

A|--10--#--#--8--#--#--7--#--#--3--#--#---8--x--x--8--x--x--8--x--x--8--x--x--|

E|--8---#--#--6--#--#--5--#--#--1--#--#---6--x--x--6--x--x--6--x--x--6--x--x--|

 

GUITAR 2:

 

e|-----------------------------------------------------------|

B|-----------------------------------------------------------|

G|-------------------------------12--------------------------|

D|----------12--13--15---13--15------15--15--13--12----------|

A|------15-------------------------------------------15--13--|

E|--15-------------------------------------------------------|

 

GUITAR 1:

 

e|-----------------------------------------------------------------------|

B|-----------------------------------------------------------------------|

G|-----------------------------------------------------------------------|

D|--8--x--x--x--x--x--x---10--x--x--x--x--x--x---5--x--5--3-----------5--|

A|--8--x--x--x--x--x--x---10--x--x--x--x--x--x---5--x--------5--3-----5--|

E|--6--x--x--x--x--x--x---8---x--x--x--x--x--x---3--x--------------5--3--|

 

GUITAR 2:

 

e|-------------------------------------------------------|

B|-------------------------------------------------------|

G|-------------------------------------------------------|

D|----------------------15--13---------------------------|

A|--13--13--13--13--13-----------13--13--13--13--12------|

E|---------------------------------------------------15--|

 

 

Second Chorus/Segundo Estribillo:

 

GUITAR 1:

 

e|-------------------------------------------------------------------------|

B|-------------------------------------------------------------------------|

G|----------------------------------------------------------------------5--|

D|--3--x--x--x--x--1---2--x--x--x--x--2---2--#--#--5--#--#--7--#--#--5--5--|

A|--3--x--x--x--x--3---2--x--x--x--x--2---2--#--#--5--#--#--7--#--#--5--3--|

E|--1--x--x--x--x--3---0--x--x--x--x--0---0--#--#--3--#--#--5--#--#--3-----|

 

GUITAR 2:

 

e|------------------------------------------------------------------------------------------|

B|------------------------------------------------------------------------------------------|

G|--12-------------------12-----------------------------------------------------------------|

D|------15--14---------------15--14-----------14---12--14--12--14--12--14-----------12--14--|

A|--------------15--15---------------15--15--------------------------------15---15----------|

E|------------------------------------------------------------------------------------------|

 

GUITAR 1:

 

e|--------------------------------------------------------------------|

B|--------------------------------------------------------------------|

G|----------------------------------------7--x--x--x--x--7------------|

D|--3--x--x--x--x--1---2--x--x--x--x--2---7--x--x--x--x--7---5--x--5--|

A|--3--x--x--x--x--3---2--x--x--x--x--2---5--x--x--x--x--5---5--x--5--|

E|--1--x--x--x--x--3---0--x--x--x--x--0----------------------3--x--3--|

 

GUITAR 2:

 

e|-------------------------------------------------|

B|-------------------------------------------------|

G|----------------13-------------------------------|

D|--------------------13--12------12---------------|

A|--15----15--15--------------15-------14--12------|

E|---------------------------------------------15--|

 

GUITAR 1:

 

e|----------------------------------------------------------------------------|

B|----------------------------------------------------------------------------|

G|----------------------------------------------------------------------------|

D|--3--x--x--x--x--1---2--x--x--x--x--2---2--#--#--5--#--#--7--#--#--5--#--#--|

A|--3--x--x--x--x--3---2--x--x--x--x--2---2--#--#--5--#--#--7--#--#--5--#--#--|

E|--1--x--x--x--x--3---0--x--x--x--x--0---0--#--#--3--#--#--5--#--#--3--#--#--|

 

GUITAR 2:

 

e|-------------------------------------------------------------------------------------------|

B|-------------------------------------------------------------------------------------------|

G|--12---------------12-------------------------------------------------------------12-/-14--|

D|------15--14-----------15--14-------14---12--14--12--14--12--14-----------12--14-----------|

A|--------------15---------------15--------------------------------15---15-------------------|

E|-------------------------------------------------------------------------------------------|

 

GUITAR 1:

 

e|---------------------------------------------------------------------------------------|

B|---------------------------------------------------------------------------------------|

G|------------------------------10--9---12-----------------------------------------------|

D|--4--#--#--3--#--#---2--7--3--10--9---12---7-b--5--7-b--5--7-b--5--7-b--5--------5--7--|

A|--4--#--#--3--#--#---2--7--3--8---7---10---7-b--5--7-b--5--7-b--5--7-b--5--5--7--------|

E|--2--#--#--1--#--#---0--5--1-----------------------------------------------------------|

 

GUITAR 2:

 

e|--------------------------------------------|

B|--------------------------------------------|

G|--12-------------------12---14--------------|

D|--------------15--14------------------------|

A|------15--12------------------------12--14--|

E|--------------------------------------------|

 

 

Bridge/Puente:

 

GUITAR 1:

 

e|-------------------------------------------------------------------------------------|

B|-------------------------------------------------------------------------------------|

G|-------------------------------------------------------------------5--x--x--x--x--5--|

D|--3--x--x--x--x--x--x---x--x--x--x--x--x--x--x---7--#--#--5--#--#--5--x--x--x--x--5--|

A|--3--x--x--x--x--x--x---x--x--x--x--x--x--x--x---7--#--#--5--#--#--3--x--x--x--x--3--|

E|--1--x--x--x--x--x--x---x--x--x--x--x--x--x--x---5--#--#--3--#--#--------------------|

 

GUITAR 2:

 

e|------------------------------------------------|

B|------------------------------------------------|

G|------------------------------------------------|

D|------12-------------------12------12--12-/-14--|

A|--15------15---12--14--15------15---------------|

E|------------------------------------------------|

 

GUITAR 1:

 

e|---------------------------------------------------------------------------------------------------------------|

B|---------------------------------------------------------------------------------------------------------------|

G|-----------------------------------------------------------------7--x--x--x--x--x--x---------------------------|

D|--8--x--x--x--x--x--x---7--#--#--5--#--#---3--x--x--x--x--x--x---7--x--x--x--x--x--x---5--x--5--3-----------5--|

A|--8--x--x--x--x--x--x---7--#--#--5--#--#---3--x--x--x--x--x--x---5--x--x--x--x--x--x---5--x--------5--3-----5--|

E|--6--x--x--x--x--x--x---5--#--#--3--#--#---1--x--x--x--x--x--x-------------------------3--x--------------5--3--|

 

GUITAR 2:

 

e|----------------------------------------------------------------------------------------------------|

B|----------------------------------------------------------------------------------------------------|

G|----------------------------------------------------------------------------------------------------|

D|--15--15--15--15--14--12-------14--14--14--14--14--12---------------------------12------------------|

A|--------------------------15---------------------------15---12--14--15--14--15------15--14--12------|

E|------------------------------------------------------------------------------------------------15--|

 

 

Third Chorus/Tercer Estribillo:

 

GUITAR 2:

 

e|------------------------------------------------------------------------------------------|

B|------------------------------------------------------------------------------------------|

G|--12-------------------12-----------------------------------------------------------------|

D|------15--14---------------15--14-----------14---12--14--12--14--12--14-----------12--14--|

A|--------------15--15---------------15--15--------------------------------15---15----------|

E|------------------------------------------------------------------------------------------|

 

GUITAR 1:

 

e|------------|

B|------------|

G|--7---------|

D|--7------5--|

A|--5------5--|

E|---------3--|

 

GUITAR 2:

 

e|-------------------------------------------------|

B|-------------------------------------------------|

G|----------------13-------------------------------|

D|--------------------13--12------12---------------|

A|--15----15--15--------------15-------14--12------|

E|---------------------------------------------15--|

 

GUITAR 1:

 

e|----------------------------------------------------------------------------|

B|----------------------------------------------------------------------------|

G|----------------------------------------------------------------------------|

D|--3--x--x--x--x--1---2--x--x--x--x--2---2--#--#--5--#--#--7--#--#--5--#--#--|

A|--3--x--x--x--x--3---2--x--x--x--x--2---2--#--#--5--#--#--7--#--#--5--#--#--|

E|--1--x--x--x--x--3---0--x--x--x--x--0---0--#--#--3--#--#--5--#--#--3--#--#--|

 

GUITAR 2:

 

e|-------------------------------------------------------------------------------------------|

B|-------------------------------------------------------------------------------------------|

G|--12---------------12-------------------------------------------------------------12-/-14--|

D|------15--14-----------15--14-------14---12--14--12--14--12--14-----------12--14-----------|

A|--------------15---------------15--------------------------------15---15-------------------|

E|-------------------------------------------------------------------------------------------|

 

GUITAR 1:

 

e|----------------------------------------------------------|---------------------------------------|

B|----------------------------------------------------------|---------------------------------------|

G|------------------------------------------------10--#--#--|-----------------------------10--#--#--|

D|--4--#--#--3--#--#---2--#--#--7--#--#--3--#--#--10--#--#--|--2--#--#--7--#--#--3--#--#--10--#--#--|

A|--4--#--#--3--#--#---2--#--#--7--#--#--3--#--#--8---#--#--|--2--#--#--7--#--#--3--#--#--8---#--#--|

E|--2--#--#--1--#--#---0--#--#--5--#--#--1--#--#------------|--0--#--#--5--#--#--1--#--#------------|

 

GUITAR 2:

 

e|---------------------|---------------------|

B|---------------------|---------------------|

G|--12-----------------|--12-----------------|

D|-----------------15--|-----------------15--|

A|-------15---12-------|-------15---12-------|

E|---------------------|---------------------|

 

GUITAR 1:

 

e|--------------------------|

B|--------------------------|

G|-----------10--9------12--|

D|--2--7--3--10--9------12--|

A|--2--7--3--8---7------10--|

E|--0--5--1-----------------|

 

GUITAR 2:

 

e|------------------------------|

B|------------------------------|

G|--12----------------------12--|

D|--------------15--14----------|

A|------15--12------------------|

E|------------------------------|

 

 

Outro:

 

GUITAR 1:

 

e|----------------------------------------|---------------------------------|

B|----------------------------4--#--#--6--|---------------------------------|

G|----------------------------3--#--#--5--|------------------------------5--|

D|----------------------------1--#--#--3--|---------------------------5--5--|

A|--3------------3--------3---------------|--3------------3--------3--5--3--|

E|-----6--3--6------6--3------------------|-----6--3--6------6--3-----3-----|

 

GUITAR 2:

 

e|------|----------|

B|--13--|------13--|

G|------|--12------|

D|------|----------|

A|------|----------|

E|------|----------|

 

 

We Go! - Tron544
00:00 / 00:00

©2019 by Fefe - Tron544

Sigueme en:

  • YouTube - White Circle
  • Facebook - White Circle
  • Instagram - White Circle
  • Twitter - White Circle
This site was designed with the
.com
website builder. Create your website today.
Start Now