~ WE ARE! ~

TABLATURAS ~ By Fefe - Tron544

 

Intro:

 

e|------------|--------------------------------|

B|------------|--------------------------------|

G|--6------8--|--6----------4---7---6---4---3--|

D|--6------8--|--6------6----------------------|

A|--4------6--|--4----------2---5---4---2---1--|

E|------------|---------4----------------------|

 

e|-----------------------------------------------------------|

B|-----------------------------------------------------------|

G|--8---6---4---6---4--6--8----8---6---4---6---11--10--9--8--|

D|-----------------------------------------------------------|

A|--6---4---2---4---2--4--6----6---4---2---4---9---8---7--6--|

E|-----------------------------------------------------------|

 

e|--------------------------------------------------|

B|--------------------------------------------------|

G|--8---6---4---6---4--6--8----3----5----6---8------|

D|-----------------------------3----6------------6--|

A|--6---4---2---4---2--4--6----1----3----4---6------|

E|-----------------------------------------------4--|

 

 

First Chorus/Primer Estribillo:

 

GUITAR 1:

 

e|------------------------------------|----------------------------------|

B|------------------------------------|----------------------------------|

G|--8---------------------------------|--8----------------5--------------|

D|--8------8------6------6--6---8--8--|--8------6----5----5------6----8--|

A|--6------8------6------6--6---8--8--|--6------6----5----3------6----8--|

E|---------6------4------4--4---6--6--|---------4----3-----------4----6--|

 

GUITAR 2:

 

e|--------------------------------------------|-------------------------------------------------------------|

B|-----------------------------------9--8-----|------------------------------9--8---------------------------|

G|--------8--8-------8--10----8--10--------8--|--------8--8-------8--10--10--------10--8--10--8------10--8--|

D|--8--8----------8---------------------------|--8--8----------8--------------------------------------------|

A|--------------------------------------------|-------------------------------------------------------------|

E|--------------------------------------------|-------------------------------------------------------------|

 

GUITAR 1:

 

e|-----------------------------------------------------------|

B|-----------------------------------------------------------|

G|--8---6---4---6---4--6--8----8---6---4---6---11--10--9--8--|

D|-----------------------------------------------------------|

A|--6---4---2---4---2--4--6----6---4---2---4---9---8---7--6--|

E|-----------------------------------------------------------|

 

 

Verse/Estribillo:

 

GUITAR 1:

 

e|------------|-----------------|

B|------------|-----------------|

G|--8---------|--8-----------6--|

D|--8------4--|--8------6----6--|

A|--6------4--|--6------6----4--|

E|---------2--|---------4-------|

 

GUITAR 2:

 

e|-------------------------------------|-----------------------------------------|

B|-------------------------------------|-----------------------------------------|

G|-------------------------------------|-----------------------------------------|

D|--8--6--5----------11--10--8------8--|--8--6--5--------------------8--6-----6--|

A|-----------8--6---------------11-----|-----------8--6----6--8--9---------9-----|

E|-------------------------------------|-----------------------------------------|

 

GUITAR 1:

 

e|----------------------|-----------------------------------|

B|----------------------|-----------------------------------|

G|--8----------------5--|-----------------5---------3----8--|

D|--8------6----5----5--|--6----8----5----5----3----3----8--|

A|--6------6----5----3--|--6----8----5----3----3----1----6--|

E|---------4----3-------|--4----6----3---------1------------|

 

GUITAR 2:

 

e|------------------------------------------------------|-----------------------------------------------------|

B|------------------------------------------------------|-----------------------------------------------------|

G|----------------------------------8--8--10--7--7-h-8--|--8--8--8--8--7--------------------------------------|

D|--8--6-h-8-p-6--5----------8--10----------------------|-----------------10--8--10---------------------------|

A|-------------------8--6-------------------------------|----------------------------8--10--11--11--10--8--6--|

E|------------------------------------------------------|-----------------------------------------------------|

 

 

Pre-Chorus/Estribillo:

 

GUITAR 1:

 

e|-------------------|

B|-------------------|

G|----------------8--|

D|--8------6------8--|

A|--8------6------6--|

E|--6------4---------|

 

GUITAR 2:

 

e|-------------------------------------------------------|

B|-------------------------------------------------------|

G|-------------10--10--8---8-----------------------------|

D|--8--10--11-----------------10--8--8--8----------------|

A|-----------------------------------------10--8--10--6--|

E|-------------------------------------------------------|

 

GUITAR 1:

 

e|-------------------|-------------------------------|

B|-------------------|-------------------------------|

G|---------5---------|--6----8----10-----------------|

D|--8------5------3--|--6----8----10------4---6---8--|

A|--8------3------3--|--4----6----8-------4---6---8--|

E|--6-------------1--|--------------------2---4---6--|

 

GUITAR 2:

 

e|-------------------------------------------|----------------------------|

B|---------------------------------8--8-h-9--|--9--9--9--9--8-------------|

G|-------------10--10--8---8--10-------------|-----------------10--8--10--|

D|--8--10--11--------------------------------|----------------------------|

A|-------------------------------------------|----------------------------|

E|-------------------------------------------|----------------------------|

 

 

Second Chorus/Segundo Estribillo:

 

GUITAR 1:

 

e|------------------------------------|-----------------------------|

B|------------------------------------|-----------------------------|

G|--8---------------------------------|--8----------------5------3--|

D|--8------8------6------6--6---8--8--|--8------6----5----5------3--|

A|--6------8------6------6--6---8--8--|--6------6----5----3------1--|

E|---------6------4------4--4---6--6--|---------4----3--------------|

 

GUITAR 2:

 

e|--------------------------------------------|--------------------------------------------------|

B|-----------------------------------9--8-----|------------------------------9--8----------------|

G|--------8--8-------8--10----8--10--------8--|--------8--8-------8--10--10--------10--8--10--8--|

D|--8--8----------8---------------------------|--8--8----------8---------------------------------|

A|--------------------------------------------|--------------------------------------------------|

E|--------------------------------------------|--------------------------------------------------|

 

GUITAR 1:

 

e|--------------------------|--------------------------|

B|--------------------------|--------------------------|

G|-----------------------5--|----------------4------6--|

D|--6------8------5------5--|--3------5------4------6--|

A|--6------8------5------3--|--3------5------2------4--|

E|--4------6------3---------|--1------3----------------|

 

GUITAR 2:

 

e|----------------------------------------------------------|-----------------------------------------|

B|-----------------8----------------------------------------|-----------------------------------------|

G|--8--8--8--8--------10----7--7--7--7--7--7--7-------------|-----8-------10----8--10--11------10--8--|

D|--------------8--------------------------------10--8--10--|--6-------8------------------------------|

A|----------------------------------------------------------|-----------------------------------------|

E|----------------------------------------------------------|-----------------------------------------|

 

We Are! - Tron544
00:00 / 00:00

©2019 by Fefe - Tron544

Sigueme en:

  • YouTube - White Circle
  • Facebook - White Circle
  • Instagram - White Circle
  • Twitter - White Circle
This site was designed with the
.com
website builder. Create your website today.
Start Now