~ WATASHI WA WATASHI NO MICHI WO IKU ~

TABLATURAS ~ By Fefe - Tron544

 

Intro:

 

e|----------------------------------------------------|

B|----------------------------------------------------|

G|----------------------------------------------------|

D|----------------------------------------------------|

A|--2--------------4--2--4--4-h-5--4---2--4--2--4-----|

E|--0--x--x--0--3----------------------------------3--|

 

e|----------------------------------------------------|

B|----------------------------------------------------|

G|----------------------------------------------------|

D|----------------------------------------------5-----|

A|--2--------------4--2--4--4-h-5--4---2--4--2-----7--|

E|--0--x--x--0--3-------------------------------------|

 

 

Verse/Estrofa: x2

 

GUITAR 1:

 

e|----------------------------------------------------|

B|----------------------------------------------------|

G|----------------------------------------------------|

D|----------------------------------------------------|

A|--2--------------4--2--4--4-h-5--4---2--4--2--4-----|

E|--0--x--x--0--3----------------------------------3--|

 

GUITAR 2:

 

e|-----------------------------------------------------------------------------|

B|-----------------------------------------------------------------------------|

G|-------------------------------------------------------------------------13--|

D|--12----14--14--14--14--14--14--14--14--14--14---14--14--14--14--14--14------|

A|-----------------------------------------------------------------------------|

E|-----------------------------------------------------------------------------|

 

GUITAR 1:

 

e|----------------------------------------------------|

B|----------------------------------------------------|

G|----------------------------------------------------|

D|----------------------------------------------5-----|

A|--2--------------4--2--4--4-h-5--4---2--4--2-----7--|

E|--0--x--x--0--3-------------------------------------|

 

GUITAR 2:

 

e|-----------------------------------------------------------------------------|

B|-----------------------------------------------------------------------------|

G|---------------------------------------------------------------------13------|

D|--12----14--14--14--14--14--14--14--14--14--14---14--14--14--14--14------14--|

A|-----------------------------------------------------------------------------|

E|-----------------------------------------------------------------------------|

 

 

Pre-Chorus/Pre-Estribillo:

 

GUITAR 1:

 

e|--12---12--12--x--x--12---12--12--x--x--x--x--x--x--|--12---12--12--x--x--12-/--|

B|----------------------------------------------------|---------------------------|

G|--9----8---9---x--x--9----9---9---x--x--x--x--x--x--|--9----8---9---x--x--9--/--|

D|----------------------------------------------------|---------------------------|

A|----------------------------------------------------|---------------------------|

E|----------------------------------------------------|---------------------------|

 

GUITAR 2:

 

e|------------------|--------------|

B|------------------|--------------|

G|------------------|--------------|

D|--14--14--14--14--|--14--14--15--|

A|------------------|--------------|

E|------------------|--------------|

 

GUITAR 1:

 

e|--12---12--12--x--x--12---12--12---12-/--|----------------------------------------------------------------------------------------|

B|-----------------------------------------|--15--x--x--15--x--x--15--x--x--15--x--x--15--15--15--15--15--x--x--15--15--15--15--15--|

G|--9----8---9---x--x--9----9---9----9--/--|--14--x--x--14--x--x--14--x--x--14--x--x--14--14--14--14--14--x--x--14--14--14--14--14--|

D|-----------------------------------------|--13--x--x--13--x--x--13--x--x--13--x--x--13--13--13--13--13--x--x--13--13--13--13--13--|

A|-----------------------------------------|--14--x--x--14--x--x--14--x--x--14--x--x--14--14--14--14--14--x--x--14--14--14--14--14--|

E|-----------------------------------------|----------------------------------------------------------------------------------------|

 

GUITAR 2:

 

e|----------------------|-----------------------------------------------|

B|----------------------|-----------------------------------------------|

G|----------------------|--16--16--16---14--16--14--16------------------|

D|--14--14--14--14--12--|-----------------------------------12--14--12--|

A|----------------------|-----------------------------------------------|

E|----------------------|-----------------------------------------------|

 

 

First Chorus/Primer Estribillo:

 

GUITAR 1:

 

e|------------------------------------------------------------------------------|

B|------------------------------------------------------------------------------|

G|-----------------------------4--x---------------------------------4--x--x--x--|

D|--2--x--x---5--x--x---4--x---4--x--2--x--x---2---5--x--x---4--x---4--x--x--x--|

A|--2--x--x---5--x--x---4--x---2--x--2--x--x---2---5--x--x---4--x---2--x--x--x--|

E|--0--x--x---3--x--x---2--x---------0--x--x---0---3--x--x---2--x---------------|

 

GUITAR 2:

 

e|----------------------------------------------------|

B|----------------------------------------------------|

G|--16--16--15--15--14----16--16--16--15--15--14------|

D|------------------------------------------------14--|

A|----------------------------------------------------|

E|----------------------------------------------------|

 

GUITAR 1:

 

e|---------------------------------------------------------------------------------|

B|---------------------------------------------------------------------------------|

G|-----------------------------4--x--x--x------------------------------------------|

D|--2--x--x---5--x--x---4--x---4--x--x--x---7--x--x---7--x--x---8--x--x---9--x--x--|

A|--2--x--x---5--x--x---4--x---2--x--x--x---7--x--x---7--x--x---8--x--x---9--x--x--|

E|--0--x--x---3--x--x---2--x----------------5--x--x---5--x--x---6--x--x---7--x--x--|

 

GUITAR 2:

 

e|---------------------------------------------------------------|

B|---------------------------------------------------------------|

G|----------------------16------12--11------11---12--12--11--16--|

D|--12--14--14--14--12------------------14-----------------------|

A|---------------------------------------------------------------|

E|---------------------------------------------------------------|

 

 

GUITAR 1:

 

e|------------------------------------------------------------------------------|

B|------------------------------------------------------------------------------|

G|-----------------------------4--x---------------------------------4--x--x--x--|

D|--2--x--x---5--x--x---4--x---4--x--2--x--x---2---5--x--x---4--x---4--x--x--x--|

A|--2--x--x---5--x--x---4--x---2--x--2--x--x---2---5--x--x---4--x---2--x--x--x--|

E|--0--x--x---3--x--x---2--x---------0--x--x---0---3--x--x---2--x---------------|

 

GUITAR 2:

 

e|----------------------------------------------------|

B|----------------------------------------------------|

G|--16--16--15--15--14----16--16--16--15--15--14------|

D|------------------------------------------------14--|

A|----------------------------------------------------|

E|----------------------------------------------------|

 

GUITAR 1:

 

e|---------------------------------------------------------------------------------|

B|---------------------------------------------------------------------------------|

G|-----------------------------4--x--x--x------------------------------------------|

D|--2--x--x---5--x--x---4--x---4--x--x--x---7--x--x---7--x--x---8--x--x---9--x--x--|

A|--2--x--x---5--x--x---4--x---2--x--x--x---7--x--x---7--x--x---8--x--x---9--x--x--|

E|--0--x--x---3--x--x---2--x----------------5--x--x---5--x--x---6--x--x---7--x--x--|

 

GUITAR 2:

 

e|-----------------------------------------------------------------|

B|-----------------------------------------------------------------|

G|----------------------16-------14--14--------14--14--------------|

D|--12--14--14--14--12-------------------14------------14--12--14--|

A|-----------------------------------------------------------------|

E|-----------------------------------------------------------------|

 

GUITAR 1:

 

  /~~~~~~~~~~~~~~~~~~~~~~~~~~REPEAT~x2~~/~~REPITE~x2~~~~~~~~~~~~~~~~~~~~~~~~~~~\

e|------------------------------------------------------------------------------|

B|------------------------------------------------------------------------------|

G|----------------------7--x--x---9--x--x--x-----------------------7--x--x---9--|

D|--2--x--x---5--x--x---7--x--x---9--x--x--x---2--x--x---5--x--x---7--x--x---9--|

A|--2--x--x---5--x--x---5--x--x---7--x--x--x---2--x--x---5--x--x---5--x--x---7--|

E|--0--x--x---3--x--x--------------------------0--x--x---3--x--x----------------|

 

Bridge/Puente:

 

GUITAR 2:

 

e|--------------------------------------------------------|----------------------------------------------------|

B|--------------------------------------------------------|----------------------------------------------------|

G|----------13--16--------13--14--16--14--13--16----------|----------11--13--14--13--11----13--11--14--13------|

D|--11--14------------14--------------------------14--11--|--11--14----------------------------------------11--|

A|--------------------------------------------------------|----------------------------------------------------|

E|--------------------------------------------------------|----------------------------------------------------|

 

e|--------------------------------------------|----------------------------------------------|

B|--------------------------------------------|----------------------------------------------|

G|--16--------13--14--16--14--13--16----------|--13--13--13--13--11------11--11----------16--|

D|--------14--------------------------14--11--|----------------------14----------14--13------|

A|--------------------------------------------|----------------------------------------------|

E|--------------------------------------------|----------------------------------------------|

 

GUITAR 1:

 

e|----------------------------7--7--7------8--8--8--|

B|----------------------------7--7--7------8--8--8--|

G|--4--4----4--4----4--4------7--7--7------8--8--8--|

D|--4--4----4--4----4--4----------------------------|

A|--2--2----2--2----2--2----------------------------|

E|--------------------------------------------------|

 

GUITAR 2:

 

e|------------------------------|

B|------------------------------|

G|------------------------------|

D|--14--16--14------15--17--15--|

A|------------------------------|

E|------------------------------|

 

 

Second Chorus/Segundo Estribillo:

 

GUITAR 1:

 

e|--------|------------------------------------------|

B|--------|------------------------------------------|

G|--------|------------------------------------------|

D|--3--/--|--8--x--x---8--x--x---9--x--x---10--x--x--|

A|--3--/--|--8--x--x---8--x--x---9--x--x---10--x--x--|

E|--1--/--|--6--x--x---6--x--x---7--x--x---8---x--x--|

 

GUITAR 2:

 

e|----------------------------------------------------|---------------------------------------------------------------|

B|----------------------------------------------------|---------------------------------------------------------------|

G|--17--17--16--16--15----17--17--17--16--16--15------|----------------------17------13--12------12---13--13--12--17--|

D|------------------------------------------------15--|--13--15--15--15--13------------------15-----------------------|

A|----------------------------------------------------|---------------------------------------------------------------|

E|----------------------------------------------------|---------------------------------------------------------------|

 

GUITAR 1:

 

e|------------------------------------------------------------------------------|

B|------------------------------------------------------------------------------|

G|-----------------------------5--x---------------------------------5--x--x--x--|

D|--3--x--x---6--x--x---5--x---5--x--3--x--x---3---6--x--x---5--x---5--x--x--x--|

A|--3--x--x---6--x--x---5--x---3--x--3--x--x---3---6--x--x---5--x---3--x--x--x--|

E|--1--x--x---4--x--x---3--x---------1--x--x---1---4--x--x---3--x---------------|

 

GUITAR 2:

 

e|----------------------------------------------------|

B|----------------------------------------------------|

G|--16--16--15--15--14----16--16--16--15--15--14------|

D|------------------------------------------------14--|

A|----------------------------------------------------|

E|----------------------------------------------------|

 

GUITAR 1:

 

e|--------------------------------------------------------------------------------------|

B|--------------------------------------------------------------------------------------|

G|-----------------------------5--x--x--x-----------------------------------------------|

D|--3--x--x---6--x--x---5--x---5--x--x--x---8--x--x---8--x--x---9--x--x---10--x--x---3--|

A|--3--x--x---6--x--x---5--x---3--x--x--x---8--x--x---8--x--x---9--x--x---10--x--x---3--|

E|--1--x--x---4--x--x---3--x----------------6--x--x---6--x--x---7--x--x---8---x--x---1--|

 

GUITAR 2:

 

e|-----------------------------------------------------------------|

B|-----------------------------------------------------------------|

G|----------------------16-------14--14--------14--14--------------|

D|--12--14--14--14--12-------------------14------------14--12--14--|

A|-----------------------------------------------------------------|

E|-----------------------------------------------------------------|

 

 

Outro:

 

GUITAR 1:

 

e|-----------------------------------|-----------------------------------|

B|-----------------------------------|-----------------------------------|

G|----------------------3--x--x---5--|----------------------3--x--x---5--|

D|--3--x--x---6--x--x---3--x--x---5--|--3--x--x---6--x--x---3--x--x---5--|

A|--3--x--x---6--x--x---1--x--x---3--|--3--x--x---6--x--x---1--x--x---3--|

E|--1--x--x---4--x--x----------------|--1--x--x---4--x--x----------------|

 

GUITAR 2:

 

e|--------------------------------------------------|--------------------------------------------------|

B|--------------------------------------------------|--------------------------------------------------|

G|--------------------------------------------------|----------------------------------------------13--|

D|--15--15--13--13--15--15--13--13--15--15--13--15--|--15--15--13--13--15--15--13--13--15--15--13------|

A|--------------------------------------------------|--------------------------------------------------|

E|--------------------------------------------------|--------------------------------------------------|

 

GUITAR 1:

 

e|-----------------------------------|-----------------------------------|

B|-----------------------------------|-----------------------------------|

G|----------------------3--x--x---5--|----------------------5--x--x------|

D|--3--x--x---6--x--x---3--x--x---5--|--3--x--x---6--x--x---5--x--x---3--|

A|--3--x--x---6--x--x---1--x--x---3--|--3--x--x---6--x--x---3--x--x---3--|

E|--1--x--x---4--x--x----------------|--1--x--x---4--x--x-------------1--|

 

GUITAR 2:

 

e|--------------------------------------------------|--------------------------------------------------|

B|--------------------------------------------------|--------------------------------------------------|

G|----------------------------------------------15--|------------------13--13--13-h-15-p-13------------|

D|--15--15--13--13--15--15--13--13--15--15--13------|--13--13--13--15--------------------------13--15--|

A|--------------------------------------------------|--------------------------------------------------|

E|--------------------------------------------------|--------------------------------------------------|

 

GUITAR 1:

 

e|-----------------------------------|-----------------------------------|

B|-----------------------------------|-----------------------------------|

G|----------------------3--x--x---5--|----------------------3--x--x---5--|

D|--3--x--x---6--x--x---3--x--x---5--|--3--x--x---6--x--x---3--x--x---5--|

A|--3--x--x---6--x--x---1--x--x---3--|--3--x--x---6--x--x---1--x--x---3--|

E|--1--x--x---4--x--x----------------|--1--x--x---4--x--x----------------|

 

GUITAR 2:

 

e|----------------------------------|--------------------------------------------------|

B|----------------------------------|--------------------------------------------------|

G|----------------------------------|----------------------------------------------13--|

D|--15--13--15--13--15--15--13--15--|--15--15--13--13--15--15--13--13--15--15--13------|

A|----------------------------------|--------------------------------------------------|

E|----------------------------------|--------------------------------------------------|

 

GUITAR 1:

 

e|-----------------------------------|-----------------------------------|

B|-----------------------------------|-----------------------------------|

G|----------------------3--x--x---5--|----------------------5--x--x------|

D|--3--x--x---6--x--x---3--x--x---5--|--3--x--x---6--x--x---5--x--x---3--|

A|--3--x--x---6--x--x---1--x--x---3--|--3--x--x---6--x--x---3--x--x---3--|

E|--1--x--x---4--x--x----------------|--1--x--x---4--x--x-------------1--|

 

GUITAR 2:

 

e|--------------------------------------------------|--------------------------------------------------|

B|--------------------------------------------------|--------------------------------------------------|

G|----------------------------------------------15--|------------------13--13--13-h-15-p-13------------|

D|--15--15--13--13--15--15--13--13--15--15--13------|--13--13--13--15--------------------------13--15--|

A|--------------------------------------------------|--------------------------------------------------|

E|--------------------------------------------------|--------------------------------------------------|

 

GUITAR 1:

 

e|--------------------------------------------|--------------------------------------------|

B|--------------------------------------------|--------------------------------------------|

G|----------------------3--x--x---5--x--x--x--|----------------------3--x--x---5--x--x--x--|

D|--3--x--x---6--x--x---3--x--x---5--x--x--x--|--3--x--x---6--x--x---3--x--x---5--x--x--x--|

A|--3--x--x---6--x--x---1--x--x---3--x--x--x--|--3--x--x---6--x--x---1--x--x---3--x--x--x--|

E|--1--x--x---4--x--x-------------------------|--1--x--x---4--x--x-------------------------|

 

GUITAR 2:

 

e|--------------------------------------------------|--------------------------------------------------|

B|--------------------------------------------------|--------------------------------------------------|

G|--------------------------------------------------|----------------------------------------------13--|

D|--15--15--13--13--15--15--13--13--15--15--13--15--|--15--15--13--13--15--15--13--13--15--15--13------|

A|--------------------------------------------------|--------------------------------------------------|

E|--------------------------------------------------|--------------------------------------------------|

 

GUITAR 1:

 

e|--------------------------------------------|--------------------------------------------|

B|--------------------------------------------|--------------------------------------------|

G|----------------------3--x--x---5--x--x--x--|----------------------5--x--x---------------|

D|--3--x--x---6--x--x---3--x--x---5--x--x--x--|--3--x--x---6--x--x---5--x--x---3--x--x--x--|

A|--3--x--x---6--x--x---1--x--x---3--x--x--x--|--3--x--x---6--x--x---3--x--x---3--x--x--x--|

E|--1--x--x---4--x--x-------------------------|--1--x--x---4--x--x-------------1--x--x--x--|

 

GUITAR 2:

 

e|--------------------------------------------------|--------------------------------------------------|

B|--------------------------------------------------|--------------------------------------------------|

G|----------------------------------------------15--|------------------13--13--13-h-15-p-13------------|

D|--15--15--13--13--15--15--13--13--15--15--13------|--13--13--13--15--------------------------13--15--|

A|--------------------------------------------------|--------------------------------------------------|

E|--------------------------------------------------|--------------------------------------------------|

 

GUITAR 1:

 

e|--------------------------------------------|--------------------------------------------|

B|--------------------------------------------|--------------------------------------------|

G|----------------------3--x--x---5--x--x--x--|----------------------3--x--x---5--x--x--x--|

D|--3--x--x---6--x--x---3--x--x---5--x--x--x--|--3--x--x---6--x--x---3--x--x---5--x--x--x--|

A|--3--x--x---6--x--x---1--x--x---3--x--x--x--|--3--x--x---6--x--x---1--x--x---3--x--x--x--|

E|--1--x--x---4--x--x-------------------------|--1--x--x---4--x--x-------------------------|

 

GUITAR 2:

 

e|----------------------------------|--------------------------------------------------|

B|----------------------------------|--------------------------------------------------|

G|----------------------------------|----------------------------------------------13--|

D|--15--13--15--13--15--15--13--15--|--15--15--13--13--15--15--13--13--15--15--13------|

A|----------------------------------|--------------------------------------------------|

E|----------------------------------|--------------------------------------------------|

 

GUITAR 1:

 

e|--------------------------------------------|--------------------------------------|

B|--------------------------------------------|--------------------------------------|

G|----------------------3--x--x---5--x--x--x--|----------------------5--x--x---------|

D|--3--x--x---6--x--x---3--x--x---5--x--x--x--|--3--x--x---6--x--x---5--x--x---3--/--|

A|--3--x--x---6--x--x---1--x--x---3--x--x--x--|--3--x--x---6--x--x---3--x--x---3--/--|

E|--1--x--x---4--x--x-------------------------|--1--x--x---4--x--x-------------1--/--|

 

GUITAR 2:

 

e|--------------------------------------------------|--------------------------------------------------|

B|--------------------------------------------------|--------------------------------------------------|

G|----------------------------------------------15--|------------------13--13--13-h-15-p-13------------|

D|--15--15--13--13--15--15--13--13--15--15--13------|--13--13--13--15--------------------------13--15--|

A|--------------------------------------------------|--------------------------------------------------|

E|--------------------------------------------------|--------------------------------------------------|

 

 

Watashi wa Watashi no Michi wo Iku - Tron544
00:00 / 00:00

©2019 by Fefe - Tron544

Sigueme en:

  • YouTube - White Circle
  • Facebook - White Circle
  • Instagram - White Circle
  • Twitter - White Circle
This site was designed with the
.com
website builder. Create your website today.
Start Now