WAKE UP, GET UP, GET OUT THERE

PERSONA 5

TABS ~ By Fefe (Tron544)

 

Intro:

BASS:

G|--------------------------------------------|
D|---------------3h5--------------------------|
A|--1---1---3----------------------------1----|
E|---------------------------1-3--3---3----3--|

G|---------------------------------------------------|

D|---------------3h5---------------------------------|

A|--1---1---3------------4-3------1-----------4-3-2--|

E|-------------------1-3------------3--3--1-3--------|

G|-------------------------------------------------------------------------------------|
D|---------------3h5---------------------------------------3h5-------------------------|
A|--1---1---3----------------------------1----1---1---3------------4-3-----------------|
E|---------------------------1-3--3---3----3-------------------1-3---------------------|

G|---------------------------------------------------------------------------------------------|
D|---------------3h5---------------------------------------3h5---------------------------------|
A|--1---1---3----------------------------1----1---1---3------------4-3------1-----------4-3-2--|
E|---------------------------1-3--3---3----3-------------------1-3------------3--3--1-3--------|

G|---------------------------------------------------------------------------------------------|
D|---------------3h5---------------------------------------3h5---------------------------------|
A|--1---1---3----------------------------1----1---1---3------------4-3------1-----------4-3-2--|
E|---------------------------1-3--3---3----3-------------------1-3------------3--3--1-3--------|

 


Verse/Estrofa:

GUITAR (Vocals):

e|-----|------------------------8---8---6---------5-------5-------------------------------|
B|-----|------8-------8---8--------------------7------7--------7--------------------------|
G|--7--|--4---------------------------------------------------------5--7--------7------5--|
D|-----|----------------------------------------------------------------------------------|
A|-----|----------------------------------------------------------------------------------|
E|-----|----------------------------------------------------------------------------------|

GUITAR (Rhythm):

e|--2----------------1----------------5----------------5----------------|
B|--3----------------3----------------5----------------7----------------|
G|--4----------------3----------------4----------------7----------------|
D|--5----------------5----------------5----------------5----------------|
A|----------------------------------------------------------------------|
E|----------------------------------------------------------------------|

BASS:

G|-----------------------------------------------------------------------------------------------|
D|-----------------------------------------------------------------------------------------------|
A|----------------------1--1-1-----1-3------------------------------1--3---1-----------1--3--4---|
E|--3----3---1--3--3------------3-------1-1--1--1-3----3---1--3--3------------3-1--1-3-----------|

GUITAR (Vocals):

e|------------------------8---8---6---------5---5-----------------------------------|
B|------8-------8---8--------------------7-----------7------------------------------|
G|--4---------------------------------------------------------5--7--------7------8--|
D|----------------------------------------------------------------------------------|
A|----------------------------------------------------------------------------------|
E|----------------------------------------------------------------------------------|

GUITAR (Rhythm):

e|--2----------------1----------------5----------------5----------------|
B|--3----------------3----------------5----------------7----------------|
G|--4----------------3----------------4----------------7----------------|
D|--5----------------5----------------5----------------5----------------|
A|----------------------------------------------------------------------|
E|----------------------------------------------------------------------|

BASS:

G|-----------------------------------------------------------------------------------------------|
D|-----------------------------------------------------------------------------------------------|
A|----------------------1--1-1-----1-3------------------------------1--3---1-----------1--3--4---|
E|--3----3---1--3--3------------3-------1-1--1--1-3----3---1--3--3------------3-1--1-3-----------|


Pre-Chorus/Pre-Estribillo:

GUITAR (Vocals):

e|---------------------------------------------|
B|--6---6-----------------------11--11-11--11--|
G|---------------------------------------------|
D|---------------------------------------------|
A|---------------------------------------------|
E|---------------------------------------------|

GUITAR (Wah-Wah):

e|--10-10-#-#-10-10-#-#-10-10-#-#-10-10-#-#-10-10-#-#-10-10-#-10--10-10--10-10-#-#--|
B|--------#-#-------#-#-------#-#-------#-#-------#-#-------#------------------#-#--|
G|--7--7--#-#-7--7--#-#-7--7--#-#-7--7--#-#-7--7--#-#-7--7--#-7---7--7---7--7--#-#--|
D|----------------------------------------------------------------------------------|
A|----------------------------------------------------------------------------------|
E|----------------------------------------------------------------------------------|

BASS:

G|-------------7-7--7--------------------------------|
D|--------------------------6-5----------------------|
A|--5-5--5--------------5-5------8--6--4--------3----|
E|-------------------------------------------5----5--|

GUITAR (Vocals):

e|--------------------------------------------|
B|---13-13--13------------------6--6---6------|
G|-----------------------------------------8--|
D|--------------------------------------------|
A|--------------------------------------------|
E|--------------------------------------------|

GUITAR (Wah-Wah):

e|--10-10-#-#-10-10-#-#-10-10-#-#-10-10-#-#-10-10-#-#-10-10-#-10--10-10--10-10-#-#--|
B|--------#-#-------#-#-------#-#-------#-#-------#-#-------#------------------#-#--|
G|--7--7--#-#-7--7--#-#-7--7--#-#-7--7--#-#-7--7--#-#-7--7--#-7---7--7---7--7--#-#--|
D|----------------------------------------------------------------------------------|
A|----------------------------------------------------------------------------------|
E|----------------------------------------------------------------------------------|

BASS:

G|-----------7-7--7--------------------------------|
D|-----------------------6--5-------6-5----8-6-----|
A|--5-5--5------------5-------8--6-----------------|
E|-------------------------------------------------|

GUITAR (Vocals):

e|---------------------------------------------|
B|------------------------------11--11-11--11--|
G|--7---7--------------------------------------|
D|---------------------------------------------|
A|---------------------------------------------|
E|---------------------------------------------|

GUITAR (Wah-Wah):

e|--10-10-#-#-10-10-#-#-10-10-#-#-10-10-#-#-10-10-#-#-10-10-#-10--10-10--10-10-#-#--|
B|--------#-#-------#-#-------#-#-------#-#-------#-#-------#------------------#-#--|
G|--7--7--#-#-7--7--#-#-7--7--#-#-7--7--#-#-7--7--#-#-7--7--#-7---7--7---7--7--#-#--|
D|----------------------------------------------------------------------------------|
A|----------------------------------------------------------------------------------|
E|----------------------------------------------------------------------------------|

BASS:

G|--7-7--7----------------------------------------|
D|----------------------6--5----------------------|
A|-------------5-5--5--------8--6--4--3-----------|
E|----------------------------------------4--6----|

GUITAR (Vocals):

e|--------------------------------------------------|
B|---13-13--13--------------13---11---13---11---13--|
G|--------------------------------------------------|
D|--------------------------------------------------|
A|--------------------------------------------------|
E|--------------------------------------------------|

GUITAR (Wah-Wah):

e|--10-10-#-#-10-10-#-#-10-10-10-10-10-10-10------------------|
B|--------#-#-------#-#---------------------------------------|
G|--7--7--#-#-7--7--#-#-7--7--7--7--7--7--7-------------------|
D|------------------------------------------------------------|
A|------------------------------------------------------------|
E|------------------------------------------------------------|

BASS:

G|--------------7-7--7------------------|
D|--------------------------------------|
A|--5-5--5---5-----------5--------------|
E|--------------------------------------|

 


Chorus/Estribillo:

GUITAR (Vocals):

e|----------------------------------------------------------------------------------------------|
B|-------11---------------11---11---11---11---13--11--------------------11---11---11---11---13--|
G|--12-------------------------------------------------12---------------------------------------|
D|----------------------------------------------------------------------------------------------|
A|----------------------------------------------------------------------------------------------|
E|----------------------------------------------------------------------------------------------|

GUITAR (Rhythm):

e|---------------------------------------------------------------------------------------------------|
B|---------------------------------------------------------------------------------------------------|
G|---------------------------------------------------------------------------------------------------|
D|--5---5-#--5----5--3--3-3-5---5-#--5----5--3--3-3-5---5-#--6----6--6--6-6-5---5-#--6----6--6--6-6--|
A|--5---5-#--5----5--3--3-3-5---5-#--5----5--3--3-3-5---5-#--6----6--6--6-6-5---5-#--6----6--6--6-6--|
E|--3---3-#--3----3--1--1-1-3---3-#--3----3--1--1-1-3---3-#--4----4--4--4-4-3---3-#--4----4--4--4-4--|

BASS:

G|----------------------------------------------------------------------------------------------------|
D|--------5-------------------------------------------------------------------------------------------|
A|---------------------------1---1----1--3--3--1-----------------------1--3--------------1---1-2---2--|
E|--3--3-----1-3--3-3--1--3----3---3--------------3-1--3---3---4----4--------3---3-4---4--------------|

GUITAR (Vocals):

e|-------------------------------------------------------------------------------------------------|
B|-------11-----------------13/15---13---11----13--------------------------13---11---13---11---13--|
G|--12--------------12--12---------------------------12--------------------------------------------|
D|-------------------------------------------------------------------------------------------------|
A|-------------------------------------------------------------------------------------------------|
E|-------------------------------------------------------------------------------------------------|

GUITAR (Rhythm):

e|--------------------------------------------------------------------------------------------------|
B|--------------------------------------------------------------------------------------------------|
G|--5---5-#--5----5--3--3-3-5---5-#--5----5--6--6-6-7---7-#--8----8--8--8-8-5---5-#--7----7---------|
D|--5---5-#--5----5--3--3-3-5---5-#--5----5--6--6-6-7---7-#--8----8--8--8-8-5---5-#--7----7---------|
A|--3---3-#--3----3--1--1-1-3---3-#--3----3--4--4-4-5---5-#--6----6--6--6-6-3---3-#--5----5---------|
E|-------------------------------------------------------------------------------------------12\----|

BASS:

G|------------------------------------------------------------------------------------------------|
D|-----------------------------------------------------5----------6-------------------------------|
A|--3---3--5p3----3--1--1--3h5--1--3---------1--3--5-------6---6-----6-----------3--5--5-----5----|
E|------------------------------------1---3-----------------------------5-3-5-3-----------5----5--|

GUITAR (Vocals):

e|----------------------------------------------------------------------------------------------|
B|-------11---------------11---11---11---11---13--11--------------------11---11---11---11---13--|
G|--12-------------------------------------------------12---------------------------------------|
D|----------------------------------------------------------------------------------------------|
A|----------------------------------------------------------------------------------------------|
E|----------------------------------------------------------------------------------------------|

GUITAR (Rhythm):

e|---------------------------------------------------------------------------------------------------|
B|---------------------------------------------------------------------------------------------------|
G|---------------------------------------------------------------------------------------------------|
D|--5---5-#--5----5--3--3-3-5---5-#--5----5--3--3-3-5---5-#--6----6--6--6-6-5---5-#--6----6--6--6-6--|
A|--5---5-#--5----5--3--3-3-5---5-#--5----5--3--3-3-5---5-#--6----6--6--6-6-5---5-#--6----6--6--6-6--|
E|--3---3-#--3----3--1--1-1-3---3-#--3----3--1--1-1-3---3-#--4----4--4--4-4-3---3-#--4----4--4--4-4--|

BASS:

G|----------------------------------------------------------------------------------------------------|
D|--------5-------------------------------------------------------------------------------------------|
A|---------------------------1---1----1--3--3--1-----------------------1--3--------------1---1-2---2--|
E|--3--3-----1-3--3-3--1--3----3---3--------------3-1--3---3---4----4--------3---3-4---4--------------|

GUITAR (Vocals):

e|---------------------------------------------------------------------------------------|
B|-------11-----------------13/15---13---11----13----------------------------------------|
G|--12--------------12--12---------------------------12----------------------------------|
D|---------------------------------------------------------------------------------------|
A|---------------------------------------------------------------------------------------|
E|---------------------------------------------------------------------------------------|

GUITAR (Rhythm):

e|---------------------------------------------------------------------------------------------------|-----|
B|---------------------------------------------------------------------------------------------------|-----|
G|--5---5-#--5----5--3--3-3-5---5-#--5----5----------------------------------------------------------|-----|
D|--5---5-#--5----5--3--3-3-5---5-#--5----5---------5---5-#--6----6--6--6-6-5---5-#--6----6--6--6-6--|--5--|
A|--3---3-#--3----3--1--1-1-3---3-#--3----3---------5---5-#--6----6--6--6-6-5---5-#--6----6--6--6-6--|--5--|
E|-------------------------------------------12\----3---3-#--4----4--4--4-4-3---3-#--4----4--4--4-4--|--3--|

BASS:

G|---------------------------------------------------------------------------------------------|
D|---------------------------------------------------------------------------------------------|
A|--3---3--5p3----3--1--1--3h5--1--3---------1--3------1---------------------1-----------------|
E|------------------------------------1---3--------3-------4----4-4-1----3-------4----4-4-1----|

 


Interlude:

BASS:

  /~~~~~~~~~~~~~~~~~~~~~( REPEAT x2 / REPITE x2 )~~~~~~~~~~~~~~~~~~~~\
G|--------------------------------------------------------------------|
D|--------------------------------------------------------------------|
A|--------------------------------------------------------------------|
E|--3--------------------------------3--------------------------------|

  /~~~~~~~~~~~~~~~~~~~~~~~( REPEAT x2 / REPITE x2 )~~~~~~~~~~~~~~~~~~~~~~\
G|------------------------------------------------------------------------|
D|------------------------------------------------------------------------|
A|------------------------------------------------------------------------|
E|--3---3---3--------------------------3---3---3--------------------------|

G|--------------------------------------------------------------------------------|
D|--------------------------------------------------------------------------------|
A|------------------------------------------------------3-------1-----------5-4---|
E|--3---3---3--------------------------3---3---3------------------3--3--1-3-------|

G|---------------------------------------------------------------------------------|
D|---------------------------------------------------------------------------------|
A|-------------------------------------------------------------------1-3--5--1--3--|
E|--3---3---3--------------------------3---3---3--------3--------1-3---------------|


Re-Intro: x2

BASS:

G|---------------------------------------------------------------------------------------------|
D|---------------3h5---------------------------------------3h5---------------------------------|
A|--1---1---3----------------------------1----1---1---3------------4-3------1-----------4-3-2--|
E|---------------------------1-3--3---3----3-------------------1-3------------3--3--1-3--------|

G|---------------------------------------------------------------------------------------------|
D|---------------3h5---------------------------------------3h5---------------------------------|
A|--1---1---3----------------------------1----1---1---3------------4-3------1-----------4-3-2--|
E|---------------------------1-3--3---3----3-------------------1-3------------3--3--1-3--------|

Wake Up, Get Up, Get Out There - Tron544
00:00 / 00:00
DONATE%20BUTTON%20(EN)_edited.png

Verse/Estrofa:

GUITAR (Vocals):

e|-----|------------------------8---8---6---------5-------5-------------------------------|
B|-----|------8-------8---8--------------------7------7--------7--------------------------|
G|--7--|--4---------------------------------------------------------5--7--------7------5--|
D|-----|----------------------------------------------------------------------------------|
A|-----|----------------------------------------------------------------------------------|
E|-----|----------------------------------------------------------------------------------|

GUITAR (Rhythm):

e|--2----------------1----------------5----------------5----------------|
B|--3----------------3----------------5----------------7----------------|
G|--4----------------3----------------4----------------7----------------|
D|--5----------------5----------------5----------------5----------------|
A|----------------------------------------------------------------------|
E|----------------------------------------------------------------------|

BASS:

G|-----------------------------------------------------------------------------------------------|
D|-----------------------------------------------------------------------------------------------|
A|----------------------1--1-1-----1-3------------------------------1--3---1-----------1--3--4---|
E|--3----3---1--3--3------------3-------1-1--1--1-3----3---1--3--3------------3-1--1-3-----------|

GUITAR (Vocals):

e|------------------------8---8---6---------5---5-----------------------------------|
B|------8-------8---8--------------------7-----------7------------------------------|
G|--4---------------------------------------------------------5--7--------7------8--|
D|----------------------------------------------------------------------------------|
A|----------------------------------------------------------------------------------|
E|----------------------------------------------------------------------------------|

GUITAR (Rhythm):

e|--2----------------1----------------5----------------5----------------|
B|--3----------------3----------------5----------------7----------------|
G|--4----------------3----------------4----------------7----------------|
D|--5----------------5----------------5----------------5----------------|
A|----------------------------------------------------------------------|
E|----------------------------------------------------------------------|

BASS:

G|-----------------------------------------------------------------------------------------------|
D|-----------------------------------------------------------------------------------------------|
A|----------------------1--1-1-----1-3------------------------------1--3---1-----------1--3--4---|
E|--3----3---1--3--3------------3-------1-1--1--1-3----3---1--3--3------------3-1--1-3-----------|


Pre-Chorus/Pre-Estribillo:

GUITAR (Vocals):

e|---------------------------------------------|
B|--6---6-----------------------11--11-11--11--|
G|---------------------------------------------|
D|---------------------------------------------|
A|---------------------------------------------|
E|---------------------------------------------|

GUITAR (Wah-Wah):

e|--10-10-#-#-10-10-#-#-10-10-#-#-10-10-#-#-10-10-#-#-10-10-#-10--10-10--10-10-#-#--|
B|--------#-#-------#-#-------#-#-------#-#-------#-#-------#------------------#-#--|
G|--7--7--#-#-7--7--#-#-7--7--#-#-7--7--#-#-7--7--#-#-7--7--#-7---7--7---7--7--#-#--|
D|----------------------------------------------------------------------------------|
A|----------------------------------------------------------------------------------|
E|----------------------------------------------------------------------------------|

BASS:

G|-------------7-7--7--------------------------------|
D|--------------------------6-5----------------------|
A|--5-5--5--------------5-5------8--6--4--------3----|
E|-------------------------------------------5----5--|

GUITAR (Vocals):

e|-------------------------------------------|
B|---13-13--13--------------------6---6------|
G|----------------------------------------8--|
D|-------------------------------------------|
A|-------------------------------------------|
E|-------------------------------------------|

GUITAR (Wah-Wah):

e|--10-10-#-#-10-10-#-#-10-10-#-#-10-10-#-#-10-10-#-#-10-10-#-10--10-10--10-10-#-#--|
B|--------#-#-------#-#-------#-#-------#-#-------#-#-------#------------------#-#--|
G|--7--7--#-#-7--7--#-#-7--7--#-#-7--7--#-#-7--7--#-#-7--7--#-7---7--7---7--7--#-#--|
D|----------------------------------------------------------------------------------|
A|----------------------------------------------------------------------------------|
E|----------------------------------------------------------------------------------|

BASS:

G|-----------7-7--7--------------------------------|
D|-----------------------6--5-------6-5----8-6-----|
A|--5-5--5------------5-------8--6-----------------|
E|-------------------------------------------------|

GUITAR (Vocals):

e|---------------------------------------------|
B|------------------------------11--11-11--11--|
G|--7---7--------------------------------------|
D|---------------------------------------------|
A|---------------------------------------------|
E|---------------------------------------------|

GUITAR (Wah-Wah):

e|--10-10-#-#-10-10-#-#-10-10-#-#-10-10-#-#-10-10-#-#-10-10-#-10--10-10--10-10-#-#--|
B|--------#-#-------#-#-------#-#-------#-#-------#-#-------#------------------#-#--|
G|--7--7--#-#-7--7--#-#-7--7--#-#-7--7--#-#-7--7--#-#-7--7--#-7---7--7---7--7--#-#--|
D|----------------------------------------------------------------------------------|
A|----------------------------------------------------------------------------------|
E|----------------------------------------------------------------------------------|

BASS:

G|--7-7--7----------------------------------------|
D|----------------------6--5----------------------|
A|-------------5-5--5--------8--6--4--3-----------|
E|----------------------------------------4--6----|

GUITAR (Vocals):

e|-------------------------------------------|
B|---13-13--13--------------------6---6------|
G|----------------------------------------8--|
D|-------------------------------------------|
A|-------------------------------------------|
E|-------------------------------------------|

GUITAR (Wah-Wah):

e|--10-10-#-#-10-10-#-#-10-10-#-#-10-10-#-#-10-10-#-#-10-10-#-10--10-10--10-10-#-#--|
B|--------#-#-------#-#-------#-#-------#-#-------#-#-------#------------------#-#--|
G|--7--7--#-#-7--7--#-#-7--7--#-#-7--7--#-#-7--7--#-#-7--7--#-7---7--7---7--7--#-#--|
D|----------------------------------------------------------------------------------|
A|----------------------------------------------------------------------------------|
E|----------------------------------------------------------------------------------|

BASS:

G|--------------7-7--7------------------------------|
D|-------------------------6-5-------6--5---8-6-----|
A|--5-5--5---5-----------5-----8--6-----------------|
E|--------------------------------------------------|

GUITAR (Vocals):

e|---------------------------------------------|
B|------------------------------11--11-11--11--|
G|--7---7--------------------------------------|
D|---------------------------------------------|
A|---------------------------------------------|

E|---------------------------------------------|

GUITAR (Wah-Wah):

e|--10-10-#-#-10-10-#-#-10-10-#-#-10-10-#-#-10-10-#-#-10-10-#-10--10-10--10-10-#-#--|
B|--------#-#-------#-#-------#-#-------#-#-------#-#-------#------------------#-#--|
G|--7--7--#-#-7--7--#-#-7--7--#-#-7--7--#-#-7--7--#-#-7--7--#-7---7--7---7--7--#-#--|
D|----------------------------------------------------------------------------------|
A|----------------------------------------------------------------------------------|
E|----------------------------------------------------------------------------------|

BASS:

G|-------------7-7--7--------------------------------|
D|--------------------------6-5----------------------|
A|--5-5--5--------------5-5------8--6--4--------3----|
E|-------------------------------------------5----5--|

GUITAR (Vocals):

e|-------------------------------------------|
B|---13-13--13--------------------6---6------|
G|----------------------------------------8--|
D|-------------------------------------------|
A|-------------------------------------------|
E|-------------------------------------------|

GUITAR (Wah-Wah):

e|--10-10-#-#-10-10-#-#-10-10-#-#-10-10-#-#-10-10-#-#-10-10-#-10--10-10--10-10-#-#--|
B|--------#-#-------#-#-------#-#-------#-#-------#-#-------#------------------#-#--|
G|--7--7--#-#-7--7--#-#-7--7--#-#-7--7--#-#-7--7--#-#-7--7--#-7---7--7---7--7--#-#--|
D|----------------------------------------------------------------------------------|
A|----------------------------------------------------------------------------------|
E|----------------------------------------------------------------------------------|

BASS:

G|-----------7-7--7--------------------------------|
D|-----------------------6--5-------6-5----8-6-----|
A|--5-5--5------------5-------8--6-----------------|
E|-------------------------------------------------|

GUITAR (Vocals):

e|---------------------------------------------|
B|------------------------------11--11-11--11--|
G|--7---7--------------------------------------|
D|---------------------------------------------|
A|---------------------------------------------|
E|---------------------------------------------|

GUITAR (Wah-Wah):

e|--10-10-#-#-10-10-#-#-10-10-#-#-10-10-#-#-10-10-#-#-10-10-#-10--10-10--10-10-#-#--|
B|--------#-#-------#-#-------#-#-------#-#-------#-#-------#------------------#-#--|
G|--7--7--#-#-7--7--#-#-7--7--#-#-7--7--#-#-7--7--#-#-7--7--#-7---7--7---7--7--#-#--|
D|----------------------------------------------------------------------------------|
A|----------------------------------------------------------------------------------|
E|----------------------------------------------------------------------------------|

BASS:

G|--7-7--7----------------------------------------|
D|----------------------6--5----------------------|
A|-------------5-5--5--------8--6--4--3-----------|
E|----------------------------------------4--6----|

GUITAR (Vocals):

e|--------------------------------------------------|
B|---13-13--13--------------13---11---13---11---13--|
G|--------------------------------------------------|
D|--------------------------------------------------|
A|--------------------------------------------------|
E|--------------------------------------------------|

GUITAR (Wah-Wah):

e|--10-10-#-#-10-10-#-#-10-10-10-10-10-10-10------------------|
B|--------#-#-------#-#---------------------------------------|
G|--7--7--#-#-7--7--#-#-7--7--7--7--7--7--7-------------------|
D|------------------------------------------------------------|
A|------------------------------------------------------------|
E|------------------------------------------------------------|

BASS:

G|--------------7-7--7------------------|
D|--------------------------------------|
A|--5-5--5---5-----------5--------------|
E|--------------------------------------|

 


Chorus/Estribillo:

GUITAR (Vocals):

e|----------------------------------------------------------------------------------------------|
B|-------11---------------11---11---11---11---13--11--------------------11---11---11---11---13--|
G|--12-------------------------------------------------12---------------------------------------|
D|----------------------------------------------------------------------------------------------|
A|----------------------------------------------------------------------------------------------|
E|----------------------------------------------------------------------------------------------|

GUITAR (Rhythm):

e|---------------------------------------------------------------------------------------------------|
B|---------------------------------------------------------------------------------------------------|
G|---------------------------------------------------------------------------------------------------|
D|--5---5-#--5----5--3--3-3-5---5-#--5----5--3--3-3-5---5-#--6----6--6--6-6-5---5-#--6----6--6--6-6--|
A|--5---5-#--5----5--3--3-3-5---5-#--5----5--3--3-3-5---5-#--6----6--6--6-6-5---5-#--6----6--6--6-6--|
E|--3---3-#--3----3--1--1-1-3---3-#--3----3--1--1-1-3---3-#--4----4--4--4-4-3---3-#--4----4--4--4-4--|

BASS:

G|----------------------------------------------------------------------------------------------------|
D|--------5-------------------------------------------------------------------------------------------|
A|---------------------------1---1----1--3--3--1-----------------------1--3--------------1---1-2---2--|
E|--3--3-----1-3--3-3--1--3----3---3--------------3-1--3---3---4----4--------3---3-4---4--------------|

GUITAR (Vocals):

e|-------------------------------------------------------------------------------------------------|
B|-------11-----------------13/15---13---11----13--------------------------13---11---13---11---13--|
G|--12--------------12--12---------------------------12--------------------------------------------|
D|-------------------------------------------------------------------------------------------------|
A|-------------------------------------------------------------------------------------------------|
E|-------------------------------------------------------------------------------------------------|

GUITAR (Rhythm):

e|--------------------------------------------------------------------------------------------------|
B|--------------------------------------------------------------------------------------------------|
G|--5---5-#--5----5--3--3-3-5---5-#--5----5--6--6-6-7---7-#--8----8--8--8-8-5---5-#--7----7---------|
D|--5---5-#--5----5--3--3-3-5---5-#--5----5--6--6-6-7---7-#--8----8--8--8-8-5---5-#--7----7---------|
A|--3---3-#--3----3--1--1-1-3---3-#--3----3--4--4-4-5---5-#--6----6--6--6-6-3---3-#--5----5---------|
E|-------------------------------------------------------------------------------------------12\----|

BASS:

G|------------------------------------------------------------------------------------------------|
D|-----------------------------------------------------5----------6-------------------------------|
A|--3---3--5p3----3--1--1--3h5--1--3---------1--3--5-------6---6-----6-----------3--5--5-----5----|
E|------------------------------------1---3-----------------------------5-3-5-3-----------5----5--|

GUITAR (Vocals):

e|----------------------------------------------------------------------------------------------|
B|-------11---------------11---11---11---11---13--11--------------------11---11---11---11---13--|
G|--12-------------------------------------------------12---------------------------------------|
D|----------------------------------------------------------------------------------------------|
A|----------------------------------------------------------------------------------------------|
E|----------------------------------------------------------------------------------------------|

GUITAR (Rhythm):

e|---------------------------------------------------------------------------------------------------|
B|---------------------------------------------------------------------------------------------------|
G|---------------------------------------------------------------------------------------------------|
D|--5---5-#--5----5--3--3-3-5---5-#--5----5--3--3-3-5---5-#--6----6--6--6-6-5---5-#--6----6--6--6-6--|
A|--5---5-#--5----5--3--3-3-5---5-#--5----5--3--3-3-5---5-#--6----6--6--6-6-5---5-#--6----6--6--6-6--|
E|--3---3-#--3----3--1--1-1-3---3-#--3----3--1--1-1-3---3-#--4----4--4--4-4-3---3-#--4----4--4--4-4--|

BASS:

G|----------------------------------------------------------------------------------------------------|
D|--------5-------------------------------------------------------------------------------------------|
A|---------------------------1---1----1--3--3--1-----------------------1--3--------------1---1-2---2--|
E|--3--3-----1-3--3-3--1--3----3---3--------------3-1--3---3---4----4--------3---3-4---4--------------|

GUITAR (Vocals):

e|-------------------------------------------------------------------------------------------------|
B|-------11-----------------13/15---13---11----13--------------------------13---11---13---11---13--|
G|--12--------------12--12---------------------------12--------------------------------------------|
D|-------------------------------------------------------------------------------------------------|
A|-------------------------------------------------------------------------------------------------|

E|-------------------------------------------------------------------------------------------------|

GUITAR (Rhythm):

e|---------------------------------------------------------------------------------------------------|
B|---------------------------------------------------------------------------------------------------|
G|--5---5-#--5----5--3--3-3-5---5-#--5----5----------------------------------------------------------|
D|--5---5-#--5----5--3--3-3-5---5-#--5----5---------5---5-#--6----6--6--6-6-5---5-#--6----6--6--6-6--|
A|--3---3-#--3----3--1--1-1-3---3-#--3----3---------5---5-#--6----6--6--6-6-5---5-#--6----6--6--6-6--|
E|-------------------------------------------12\----3---3-#--4----4--4--4-4-3---3-#--4----4--4--4-4--|

BASS:

G|---------------------------------------------------------------------------------------------|
D|---------------------------------------------------------------------------------------------|
A|--3---3--5p3----3--1--1--3h5--1--3---------1--3------1---------------------1-----------------|
E|------------------------------------1---3--------3-------4----4-4-1----3-------4----4-4-1----|

GUITAR (Vocals):

e|----------------------------------------------------------------------------------------------|
B|-------11---------------11---11---11---11---13--11--------------------11---11---11---11---13--|
G|--12-------------------------------------------------12---------------------------------------|
D|----------------------------------------------------------------------------------------------|
A|----------------------------------------------------------------------------------------------|
E|----------------------------------------------------------------------------------------------|

GUITAR (Rhythm):

e|---------------------------------------------------------------------------------------------------|
B|---------------------------------------------------------------------------------------------------|
G|---------------------------------------------------------------------------------------------------|
D|--5---5-#--5----5--3--3-3-5---5-#--5----5--3--3-3-5---5-#--6----6--6--6-6-5---5-#--6----6--6--6-6--|
A|--5---5-#--5----5--3--3-3-5---5-#--5----5--3--3-3-5---5-#--6----6--6--6-6-5---5-#--6----6--6--6-6--|
E|--3---3-#--3----3--1--1-1-3---3-#--3----3--1--1-1-3---3-#--4----4--4--4-4-3---3-#--4----4--4--4-4--|

BASS:

G|----------------------------------------------------------------------------------------------------|
D|--------5-------------------------------------------------------------------------------------------|
A|---------------------------1---1----1--3--3--1-----------------------1--3--------------1---1-2---2--|
E|--3--3-----1-3--3-3--1--3----3---3--------------3-1--3---3---4----4--------3---3-4---4--------------|

GUITAR (Vocals):

e|-------------------------------------------------------------------------------------------------|
B|-------11-----------------13/15---13---11----13--------------------------13---11---13---11---13--|
G|--12--------------12--12---------------------------12--------------------------------------------|
D|-------------------------------------------------------------------------------------------------|
A|-------------------------------------------------------------------------------------------------|
E|-------------------------------------------------------------------------------------------------|

GUITAR (Rhythm):

e|--------------------------------------------------------------------------------------------------|
B|--------------------------------------------------------------------------------------------------|
G|--5---5-#--5----5--3--3-3-5---5-#--5----5--6--6-6-7---7-#--8----8--8--8-8-5---5-#--7----7---------|
D|--5---5-#--5----5--3--3-3-5---5-#--5----5--6--6-6-7---7-#--8----8--8--8-8-5---5-#--7----7---------|
A|--3---3-#--3----3--1--1-1-3---3-#--3----3--4--4-4-5---5-#--6----6--6--6-6-3---3-#--5----5---------|
E|-------------------------------------------------------------------------------------------12\----|

BASS:

G|------------------------------------------------------------------------------------------------|
D|-----------------------------------------------------5----------6-------------------------------|
A|--3---3--5p3----3--1--1--3h5--1--3---------1--3--5-------6---6-----6-----------3--5--5-----5----|
E|------------------------------------1---3-----------------------------5-3-5-3-----------5----5--|

GUITAR (Vocals):

e|----------------------------------------------------------------------------------------------|
B|-------11---------------11---11---11---11---13--11--------------------11---11---11---11---13--|
G|--12-------------------------------------------------12---------------------------------------|
D|----------------------------------------------------------------------------------------------|
A|----------------------------------------------------------------------------------------------|
E|----------------------------------------------------------------------------------------------|

GUITAR (Rhythm):

e|---------------------------------------------------------------------------------------------------|
B|---------------------------------------------------------------------------------------------------|
G|---------------------------------------------------------------------------------------------------|
D|--5---5-#--5----5--3--3-3-5---5-#--5----5--3--3-3-5---5-#--6----6--6--6-6-5---5-#--6----6--6--6-6--|
A|--5---5-#--5----5--3--3-3-5---5-#--5----5--3--3-3-5---5-#--6----6--6--6-6-5---5-#--6----6--6--6-6--|
E|--3---3-#--3----3--1--1-1-3---3-#--3----3--1--1-1-3---3-#--4----4--4--4-4-3---3-#--4----4--4--4-4--|

BASS:

G|----------------------------------------------------------------------------------------------------|
D|--------5-------------------------------------------------------------------------------------------|
A|---------------------------1---1----1--3--3--1-----------------------1--3--------------1---1-2---2--|
E|--3--3-----1-3--3-3--1--3----3---3--------------3-1--3---3---4----4--------3---3-4---4--------------|

GUITAR (Vocals):

e|---------------------------------------------------------------------------------------|
B|-------11-----------------13/15---13---11----13----------------------------------------|
G|--12--------------12--12---------------------------12----------------------------------|
D|---------------------------------------------------------------------------------------|
A|---------------------------------------------------------------------------------------|
E|---------------------------------------------------------------------------------------|

GUITAR (Rhythm):

e|---------------------------------------------------------------------------------------------------|-----|
B|---------------------------------------------------------------------------------------------------|-----|
G|--5---5-#--5----5--3--3-3-5---5-#--5----5----------------------------------------------------------|-----|
D|--5---5-#--5----5--3--3-3-5---5-#--5----5---------5---5-#--6----6--6--6-6-5---5-#--6----6--6--6-6--|--5--|
A|--3---3-#--3----3--1--1-1-3---3-#--3----3---------5---5-#--6----6--6--6-6-5---5-#--6----6--6--6-6--|--5--|
E|-------------------------------------------12\----3---3-#--4----4--4--4-4-3---3-#--4----4--4--4-4--|--3--|

BASS:

G|---------------------------------------------------------------------------------------------|-----|
D|---------------------------------------------------------------------------------------------|-----|
A|--3---3--5p3----3--1--1--3h5--1--3---------1--3------1---------------------1-----------------|-----|
E|------------------------------------1---3--------3-------4----4-4-1----3-------4----4-4-1----|--3--|

©2015 by Fefe - Tron544

Sigueme en:

  • YouTube - White Circle
  • Facebook - White Circle
  • Instagram - White Circle
  • Twitter - White Circle
This site was designed with the
.com
website builder. Create your website today.
Start Now