VORACITY

OVERLORD III

TABS ~ By Fefe (Tron544)

 

Intro:

GUITAR (Vocals):

e|--------------|--11--10--9----------------------11--10--9----------------|
B|--8-8--8-/-9--|-------------12---------8--8-/-9-----------12----------9--|
G|--------------|-----------------11-11------------------------11-11-11----|
D|--------------|----------------------------------------------------------|
A|--------------|----------------------------------------------------------|
E|--------------|----------------------------------------------------------|

GUITAR (Rhythm):

e|-------------------------------------------|
B|-------------------------------------------|
G|-------------------------------------------|
D|--2--------------------6-------------------|
A|--2--------------------6-------------------|
E|--0--------/-11--------4--------/-9--------|

GUITAR (Vocals):

e|----------------9------------------------------------------------------9-/-11--|
B|-----9--11--12-----12--11----9-----9--9-/-12--9-----9-/-12--9-h-11-------------|
G|--8-----------------------------8----------------8-----------------------------|
D|-------------------------------------------------------------------------------|
A|-------------------------------------------------------------------------------|
E|-------------------------------------------------------------------------------|

GUITAR (Harmony):

e|--9-----9--9-/-11--9-----9-/-11----------|
B|-----9----------------9------------------|
G|---------------------------------8-h-11--|
D|-----------------------------------------|
A|-----------------------------------------|
E|-----------------------------------------|

GUITAR (Rhythm):

e|------------------------------------------------|
B|------------------------------------------------|
G|------------------------------------------------|
D|--6-------------------8--------7--7--x-x-x-x-7--|
A|--6-------------------8--------7--7--x-x-x-x-7--|
E|--4--------/-7--------6--------5--5--x-x-x-x-5--|

GUITAR (Vocals):

e|--9-/-11--|
B|----------|
G|----------|
D|----------|
A|----------|
E|----------|

GUITAR (Harmony):

e|---------------------|
B|--9-/-11----10-p-9---|
G|---------------------|
D|---------------------|
A|---------------------|
E|---------------------|

GUITAR (Rhythm):

e|-----------------------------------------------------------------------------------|
B|-----------------------------------------------------------------------------------|
G|----------------------9--8----------------------9--8----------------------9--8-----|
D|--6--#-9-#-#-8---#-7--9--8--6--#-9-#-#-8---#-7--9--8--6--#-9-#-#-8---#-7--9--8--6--|
A|--6--#-9-#-#-8---#-7--7--6--6--#-9-#-#-8---#-7--7--6--6--#-9-#-#-8---#-7--7--6--6--|
E|--4--#-7-#-#-6---#-5--------4--#-7-#-#-6---#-5--------4--#-7-#-#-6---#-5--------4--|

 


Verse/Estrofa:

GUITAR (Vocals):

e|-----------|--------------------------------------------------------|
B|--12----8--|--9-----------------------8--9-----------------------8--|
G|-----------|-----7-8-7-8-7-8-7--9--8--------7-8-7-8-7-8-7--9--8-----|
D|-----------|--------------------------------------------------------|
A|-----------|--------------------------------------------------------|
E|-----------|--------------------------------------------------------|

GUITAR (Rhythm):

e|------------------------------------------------------|
B|------------------------------------------------------|
G|----------------------9--8----------------------9--8--|
D|--6--#-9-#-#-8---#-7--9--8--6--#-9-#-#-8---#-7--9--8--|
A|--6--#-9-#-#-8---#-7--7--6--6--#-9-#-#-8---#-7--7--6--|
E|--4--#-7-#-#-6---#-5--------4--#-7-#-#-6---#-5--------|

GUITAR (Vocals):

e|---------------------------------------------------------|
B|--9-------7----------8--8-h-9-------7----------8--8-h-9--|
G|------8-------6---9-------------8-------6---9------------|
D|---------------------------------------------------------|
A|---------------------------------------------------------|
E|---------------------------------------------------------|

GUITAR (Harmony):

e|----------------------------------------------------------------------|
B|--12--------11--------9--11--11-h-12--------11--------9--11--11-h-12--|
G|-------13--------11--------------------13--------11-------------------|
D|----------------------------------------------------------------------|
A|----------------------------------------------------------------------|
E|----------------------------------------------------------------------|

GUITAR (Rhythm):

e|-------------------------------------------------|
B|-------------------------------------------------|
G|------------------9--8------------------9--8-----|
D|--6---9---8---7---9--8--6---9---8---7---9--8--6--|
A|--6---9---8---7---7--6--6---9---8---7---7--6--6--|
E|--4---7---6---5---------4---7---6---5---------4--|

GUITAR (Vocals):

e|--------------------------------------------------------|
B|------------------------8--9----------------------8--9--|
G|--7-8-7-8-7-8-7-8-9--8--------7-8-7-8--7-8--9--8--------|
D|--------------------------------------------------------|
A|--------------------------------------------------------|
E|--------------------------------------------------------|

GUITAR (Rhythm):

e|------------------------------------------------------|
B|------------------------------------------------------|
G|----------------------9--8----------------------9--8--|
D|--6--#-9-#-#-8---#-7--9--8--6--#-9-#-#-8---#-7--9--8--|
A|--6--#-9-#-#-8---#-7--7--6--6--#-9-#-#-8---#-7--7--6--|
E|--4--#-7-#-#-6---#-5--------4--#-7-#-#-6---#-5--------|

GUITAR (Vocals):

e|---------------------------------------------------------|
B|--9-------7----------8--8-h-9-------7----------8--8-h-9--|
G|------8-------6---9-------------8-------6---9------------|
D|---------------------------------------------------------|
A|---------------------------------------------------------|
E|---------------------------------------------------------|

GUITAR (Harmony):

e|----------------------------------------------------------------------|
B|--12--------11--------9--11--11-h-12--------11--------9--11--11-h-12--|
G|-------13--------11--------------------13--------11-------------------|
D|----------------------------------------------------------------------|
A|----------------------------------------------------------------------|
E|----------------------------------------------------------------------|

GUITAR (Rhythm):

e|-------------------------------------------------|
B|-------------------------------------------------|
G|------------------9--8------------------9--8-----|
D|--6---9---8---7---9--8--6---9---8---7---9--8--6--|
A|--6---9---8---7---7--6--6---9---8---7---7--6--6--|
E|--4---7---6---5---------4---7---6---5---------4--|

 


Pre-Chorus/Pre-Estribillo:

GUITAR (Vocals):

e|----------------------------------------------------------------------------|
B|--9---------------------------------------9-----------9--9-/-12----11----8--|
G|-------8------8--9--11----8--9--11-------------8----------------------------|
D|----------------------------------------------------------------------------|
A|----------------------------------------------------------------------------|
E|----------------------------------------------------------------------------|

GUITAR (Harmony):

e|--------------------------------------------11----10--------|
B|--9--11--12----9--11--12--------------------------------12--|
G|------------------------------------------------------------|
D|------------------------------------------------------------|
A|------------------------------------------------------------|
E|------------------------------------------------------------|

VORACITY - Tron544
00:00 / 00:00
DONATE%20BUTTON%20(EN)_edited.png

Chorus/Estribillo:

GUITAR (Vocals):

e|--------------|--11--10--9-----------------------11--10--9-----------------|
B|--8-8--8-/-9--|-------------12---------8--8-/-9------------12-----------9--|
G|--------------|-----------------11-11-------------------------11-11-11-----|
D|--------------|------------------------------------------------------------|
A|--------------|------------------------------------------------------------|
E|--------------|------------------------------------------------------------|

GUITAR (Rhythm):

e|---------------------|--------------------------------------|
B|---------------------|--------------------------------------|
G|---------------------|--------------------------------------|
D|--6--9--8--5--6------|--2--------4--------5--------6--------|
A|--6--9--8--5--6------|--2--------4--------6--------6--------|
E|--4--7--6--3--4------|--0--------2--------3--------4--------|

GUITAR (Vocals):

e|-------------9--11--9--------------------------------|
B|------9--12------------12--11--11--------11-11-11----|
G|--11-------------------------------8--8-----------8--|
D|-----------------------------------------------------|
A|-----------------------------------------------------|
E|-----------------------------------------------------|

GUITAR (Harmony):

e|--11--11--------7-7-7----|
B|----------8--8--------7--|
G|-------------------------|
D|-------------------------|
A|-------------------------|
E|-------------------------|

GUITAR (Rhythm):

e|----------------------------------------|
B|----------------------------------------|
G|-----------8----------------------------|
D|--2--------8--------6----5----4---3--3--|
A|--2--------6--------6----6----4---2--2--|
E|--0-----------------4----3----2---1--1--|

GUITAR (Vocals):

e|-----11--10--9-----------------------11--10--9--11-/-12--12--12--9-h-11--|
B|--9-------------12---------8--8-/-9--------------------------------------|
G|-------------------11--11------------------------------------------------|
D|-------------------------------------------------------------------------|
A|-------------------------------------------------------------------------|
E|-------------------------------------------------------------------------|

GUITAR (Rhythm):

e|--------------------------------------|
B|--------------------------------------|
G|-----------8--------4--------8--------|
D|--2--------8--------4--------8--------|
A|--2--------6--------2--------6--------|
E|--0-----------------------------------|

GUITAR (Vocals):

e|----------------9------------------------------------------------------9-/-11--|
B|-----9--11--12-----12--11----9-----9--9-/-12--9-----9-/-12--9-h-11-------------|
G|--8-----------------------------8----------------8-----------------------------|
D|-------------------------------------------------------------------------------|
A|-------------------------------------------------------------------------------|
E|-------------------------------------------------------------------------------|

GUITAR (Harmony):

e|--9-----9--9-/-11--9-----9-/-11----------|
B|-----9----------------9------------------|
G|---------------------------------8-h-11--|
D|-----------------------------------------|
A|-----------------------------------------|
E|-----------------------------------------|

GUITAR (Rhythm):

e|-------------------------------------------------|
B|-------------------------------------------------|
G|-------------------------------------------------|
D|--6----6----9----9----8----8----7--7--x-x-x-x-7--|
A|--6----6----9----9----8----8----7--7--x-x-x-x-7--|
E|--4----4----7----7----6----6----5--5--x-x-x-x-5--|

GUITAR (Vocals):

e|--9-/-11--|
B|----------|
G|----------|
D|----------|
A|----------|
E|----------|

GUITAR (Harmony):

e|---------------------|
B|--9-/-11----10-p-9---|
G|---------------------|
D|---------------------|
A|---------------------|
E|---------------------|

GUITAR (Rhythm):

e|--------------------------------------------------------------------------------|
B|--------------------------------------------------------------------------------|
G|----------------------9--8----------------------9--8----------------------9--8--|
D|--6--#-9-#-#-8---#-7--9--8--6--#-9-#-#-8---#-7--9--8--6--#-9-#-#-8---#-7--9--8--|
A|--6--#-9-#-#-8---#-7--7--6--6--#-9-#-#-8---#-7--7--6--6--#-9-#-#-8---#-7--7--6--|
E|--4--#-7-#-#-6---#-5--------4--#-7-#-#-6---#-5--------4--#-7-#-#-6---#-5--------|


Outro:

GUITAR (Vocals):

e|--11-------10-------------------9-h-11-------------------|
B|-------9--------11---11----12------------8---9-/-11---9--|
G|---------------------------------------------------------|
D|---------------------------------------------------------|
A|---------------------------------------------------------|
E|---------------------------------------------------------|

GUITAR (Harmony):

e|--14---9---13---10---10----11---14--------10---11--|
B|-------------------------------------12------------|
G|---------------------------------------------------|
D|---------------------------------------------------|
A|---------------------------------------------------|
E|---------------------------------------------------|

GUITAR (Rhythm):

e|----------------------------------------------|-------------|
B|----------------------------------------------|-------------|
G|--8-------7----------------8------------------|-------------|
D|--8---6---7---8---8----9---8---5---6-/-8---6--|--8---5---6--|
A|--6---6---5---8---8----9---6---5---6-/-8---6--|--8---5---6--|
E|------4-------6---6----7-------3---4-/-6---4--|--6---3---4--|

©2015 by Fefe - Tron544

Sigueme en:

  • YouTube - White Circle
  • Facebook - White Circle
  • Instagram - White Circle
  • Twitter - White Circle
This site was designed with the
.com
website builder. Create your website today.
Start Now