UTSUKUSHIKI ZANKOKU NA SEKAI

ATTACK ON TITAN

TABS ~ By Fefe (Tron544)

 

Verse/Estrofa:

 

e|------------------------------------------------|

B|------------------------------------------------|

G|------------------------------------------------|

D|--12--12--12--12--12--12--12--10----------9--9--|

A|----------------------------------12--12--------|

E|------------------------------------------------|

 

e|------------------------------------------------------|

B|------------------------------------------------------|

G|------------------------------------------------------|

D|----------------------10--12--14--10------------------|

A|--10--12--13--13--13------------------10--10--12--12--|

E|------------------------------------------------------|

 

e|------------------------------------------------|

B|------------------------------------------------|

G|------------------------------------------------|

D|--12--12--12--12--12--12--12--10----------9--9--|

A|----------------------------------12--12--------|

E|------------------------------------------------|

e|-----------------------------------------|

B|-----------------------------------------|

G|------9--10--12--14--12---9---10--9------|

D|--12---------------------------------12--|

A|-----------------------------------------|

E|-----------------------------------------|

 

 

Pre-Chorus/Pre-Estribillo:

 

e|---------------------------------------|-----------------------------------|

B|---------------------------------------|-------------------11--10----------|

G|------10--12---------------------------|------10--12---------------10------|

D|--12----------12---12--10--10--12--12--|--12----------12---------------10--|

A|---------------------------------------|-----------------------------------|

E|---------------------------------------|-----------------------------------|

 

e|---------------------------------------|------------------------------------|

B|---------------------------------------|------------------------------------|

G|------10--12---------------------------|------9--10--12--14--12----9--------|

D|--12----------12---12--10--10--12--12--|--12----------------------------12--|

A|---------------------------------------|------------------------------------|

E|---------------------------------------|------------------------------------|

Utsukushiki Zankoku na Sekai - Tron544
00:00 / 00:00
DONATE%20BUTTON%20(EN)_edited.png

Chorus/Estribillo:

 

GUITAR 1:

 

e|-----|-------------------------------|

B|-----|-------------------------------|

G|--7--|--7-------------------------2--|

D|--7--|--7------3------5------5----2--|

A|--5--|--5------3------5------5----0--|

E|-----|---------1------3------3-------|

 

GUITAR 2:

 

e|----------10------10------10--10------10------10----------------------|

B|--10--13------13------13----------13------13------13--10--10--12--12--|

G|----------------------------------------------------------------------|

D|----------------------------------------------------------------------|

A|----------------------------------------------------------------------|

E|----------------------------------------------------------------------|

 

GUITAR 1:

 

e|------------------------------|

B|------------------------------|

G|--3------5------3------7---6--|

D|--3------5------3------7---7--|

A|--1------3------1------5---4--|

E|------------------------------|

 

GUITAR 2:

 

e|--------------------------------------------------------------------------10---9--|

B|------10--11--10--11--10--11--13-------------10---11--10--11--10--11--13----------|

G|--12------------------------------12----12----------------------------------------|

D|----------------------------------------------------------------------------------|

A|----------------------------------------------------------------------------------|

E|----------------------------------------------------------------------------------|

 

GUITAR 1:

 

e|--------------------------|

B|--------------------------|

G|--7-------------5------5--|

D|--7------3------5------5--|

A|--5------3------3------3--|

E|---------1----------------|

 

GUITAR 2:

 

e|------10------10------10--10------10------10-----------12--12--------------|

B|--13------13------13----------13------13-------10--10--------------13--10--|

G|---------------------------------------------------------------------------|

D|---------------------------------------------------------------------------|

A|---------------------------------------------------------------------------|

E|---------------------------------------------------------------------------|

 

GUITAR 1:

 

e|---------------------------|

B|---------------------------|

G|---------------------------|

D|--5------7------8------10--|

A|--5------7------8------10--|

E|--3------5------6------8---|

 

GUITAR 2:

 

e|--------------------------------------------------------------------------------|

B|--------------------------10----------------------------10----------------------|

G|--12--10--12--10--12--12--------12--10--12--10--12--12----------12---10--9------|

D|----------------------------------------------------------------------------12--|

A|--------------------------------------------------------------------------------|

E|--------------------------------------------------------------------------------|

 

GUITAR 1:

 

e|---------------------------|

B|-------------11---13---13--|

G|--12---10------------------|

D|-------------8----10---10--|

A|--10---8-------------------|

E|---------------------------|

©2015 by Fefe - Tron544

Sigueme en:

  • YouTube - White Circle
  • Facebook - White Circle
  • Instagram - White Circle
  • Twitter - White Circle
This site was designed with the
.com
website builder. Create your website today.
Start Now