UTAUYO!! MIRACLE

K-ON!!

TABS ~ By Fefe (Tron544)

 

Intro:

 

e|--6-------------|----------------------|

B|--9-------------|----------------------|

G|--7-------------|----------------------|

D|--6------8---8--|--6--6--8--8--10--12--|

A|--8------8---8--|----------------------|

E|--6------6---6--|----------------------|

 

 

First Chorus/Primer Estribillo:

 

GUITAR 1:

 

e|--------------------------|--------------------------------------------------------|

B|--------------------------|--------------------------------------------------------|

G|-----------------------5--|--------------------------(8)-----------------(8)-------|

D|--6------8------5------5--|--6------8-----------(8)-------(8)-------(8)-------(8)--|

A|--6------8------5------3--|--6------8------(6)-----------------(6)-----------------|

E|--4------6------3---------|--4------6----------------------------------------------|

 

GUITAR 2:

 

e|--------------11--10---------------------11---------|--8---------8---------11--10----------------|

B|--11--11--11----------11--8--8--h9--h11------11--8--|-----11--8-----11--8----------11--8--9--11--|

G|----------------------------------------------------|--------------------------------------------|

D|----------------------------------------------------|--------------------------------------------|

A|----------------------------------------------------|--------------------------------------------|

E|----------------------------------------------------|--------------------------------------------|

 

GUITAR 1:

 

e|--------------------------|------------------------|

B|--------------------------|------------------------|

G|-----------------------5--|--4------6---6---6---6--|

D|--6------8------5------5--|--4------6---6---6---6--|

A|--6------8------5------3--|--2------4---4---4---4--|

E|--4------6------3---------|------------------------|

 

GUITAR 2:

 

e|--------------11--10---------------------11--13--11--|----------------------9--11--9--13--11--|

B|--11--11--11----------11--8--8--h9--h11--------------|--12--12--11--11--12--------------------|

G|-----------------------------------------------------|----------------------------------------|

D|-----------------------------------------------------|----------------------------------------|

A|-----------------------------------------------------|----------------------------------------|

E|-----------------------------------------------------|----------------------------------------|

 

 

Interlude/Intermedio: x2

 

GUITAR 1:

 

e|----------------------------------------------|

B|----------------------------------------------|

G|---------------------------10---11---11---12--|

D|------------10---11---12---8----9----9----10--|

A|--10---13---8----9----10----------------------|

E|--8----11-------------------------------------|

 

GUITAR 2:

 

e|--------------------------------------------------------------------------7--8--|

B|--4-p3--4-p3--4-p3--4-p3--4-p3--4-p3--4-p3--4-p3--4-p3--4-p3--4-p3--4-p3--------|

G|--------------------------------------------------------------------------------|

D|--------------------------------------------------------------------------------|

A|--------------------------------------------------------------------------------|

E|--------------------------------------------------------------------------------|

 

 

Verse/Estrofa:

 

GUITAR 1:

 

e|--8--------------------------------------8------------------|-----------------------------|

B|--8--------------------------------------8------------------|-----------------------------|

G|--8----(5)--x--x--5--x--x--5--x--x--5----8----(5)--x--x--5--|--2-h3--2-h3--2-h3--2-h3--5--|

D|-------(5)--x--x--5--x--x--5--x--x--5---------(5)--x--x--5--|-----------------------------|

A|-------(3)--x--x--3--x--x--3--x--x--3---------(3)--x--x--3--|-----------------------------|

E|------------------------------------------------------------|-----------------------------|

 

GUITAR 2:

 

e|-----------------|------------------------------------------------------------------------------|

B|-----------------|------------------------------------------------------------------------------|

G|------9--10--12--|--12--12--10--10--9--10--9--10--12----------9--10--12--12--12--11--11--9------|

D|--12-------------|----------------------------------------12--------------------------------10--|

A|-----------------|------------------------------------------------------------------------------|

E|-----------------|------------------------------------------------------------------------------|

 

GUITAR 1:

 

e|--8--------------------------------------8------------------|-----------------------------|

B|--8--------------------------------------8------------------|-----------------------------|

G|--8----(5)--x--x--5--x--x--5--x--x--5----8----(5)--x--x--5--|--2-h3--2-h3--2-h3--2-h3--5--|

D|-------(5)--x--x--5--x--x--5--x--x--5---------(5)--x--x--5--|-----------------------------|

A|-------(3)--x--x--3--x--x--3--x--x--3---------(3)--x--x--3--|-----------------------------|

E|------------------------------------------------------------|-----------------------------|

 

GUITAR 2:

 

e|------------------------------------------------------------------------------|

B|------------------------------------------------------------------------------|

G|--12--12--10--10--9--10--9--10--12----------9--10--12--12--12--11--11--9------|

D|----------------------------------------12--------------------------------10--|

A|------------------------------------------------------------------------------|

E|------------------------------------------------------------------------------|

 

GUITAR 1:

 

e|------------------------------------------------------------------------------|

B|------------------------------------------------------------------------------|

G|------------------------------------------------------------------------------|

D|----------------------------6---6---5------------------------------6---6---5--|

A|-----7--8--9--10--9--8--7---6---6---5-------7--8--9--10--9--8--7---6---6---5--|

E|--8-------------------------4---4---3----8-------------------------4---4---3--|

 

GUITAR 2:

 

e|---------------------------------------------------------------------------------------|

B|---------------------------------------------------------------------------------------|

G|--------------------------9----------9--10--11--12------------------12--10--9----------|

D|--10--12--10--12--10--12-----10--12-----------------10--10------10-------------12--10--|

A|---------------------------------------------------------------------------------------|

E|---------------------------------------------------------------------------------------|

 

GUITAR 1:

 

e|-----------------------------------------------------------------------------------|

B|-----------------------------------------------------------------------------------|

G|-----------------------------------------7-----9-----------------------------------|

D|----------------------------6---6---5----7-----9-----5-----------6-----------8-----|

A|-----7--8--9--10--9--8--7---6---6---5----5-----7-----5--------6-----6-----8-----8--|

E|--8-------------------------4---4---3----------------3-----4-----------6-----------|

 

GUITAR 2:

 

e|----------------------------------------------------------------------------------------------------------|

B|----------------------------------------------------------------------------------------------------------|

G|-------------------------9----------9--10--11--12---------------14--12--12----10--9--10--9--10--9--10--12-|

D|-10--12--10--12--10--12-----10--12-----------------10--10---10--------------------------------------------|

A|----------------------------------------------------------------------------------------------------------|

E|----------------------------------------------------------------------------------------------------------|

 

e|----------------------|

B|----------------------|

G|----------------------|

D|--6--6--8--8--10--12--|

A|----------------------|

E|----------------------|

Utauyo!! MIRACLE - Tron544
00:00 / 00:00
DONATE%20BUTTON%20(EN)_edited.png

Second Chorus/Segundo Estribillo:

 

GUITAR 1:

 

e|--------------------------|--------------------------------------------------------|

B|--------------------------|--------------------------------------------------------|

G|-----------------------5--|--------------------------(8)-----------------(8)-------|

D|--6------8------5------5--|--6------8-----------(8)-------(8)-------(8)-------(8)--|

A|--6------8------5------3--|--6------8------(6)-----------------(6)-----------------|

E|--4------6------3---------|--4------6----------------------------------------------|

 

GUITAR 2:

 

e|--------------11--10---------------------11---------|--8---------8---------11--10----------------|

B|--11--11--11----------11--8--8--h9--h11------11--8--|-----11--8-----11--8----------11--8--9--11--|

G|----------------------------------------------------|--------------------------------------------|

D|----------------------------------------------------|--------------------------------------------|

A|----------------------------------------------------|--------------------------------------------|

E|----------------------------------------------------|--------------------------------------------|

 

GUITAR 1:

 

e|--------------------------|------------------------|

B|--------------------------|------------------------|

G|-----------------------5--|--4------6---6---6---6--|

D|--6------8------5------5--|--4------6---6---6---6--|

A|--6------8------5------3--|--2------4---4---4---4--|

E|--4------6------3---------|------------------------|

 

GUITAR 2:

 

e|--------------11--10---------------------11--13--11--|----------------------9--11--9--13--|

B|--11--11--11----------11--8--8--h9--h11--------------|--12--12--11--11--12----------------|

G|-----------------------------------------------------|------------------------------------|

D|-----------------------------------------------------|------------------------------------|

A|-----------------------------------------------------|------------------------------------|

E|-----------------------------------------------------|------------------------------------|

 

GUITAR 1:

 

e|--------------------------|--------------------------------------------------------|

B|--------------------------|--------------------------------------------------------|

G|-----------------------5--|--------------------------(8)-----------------(8)-------|

D|--6------8------5------5--|--6------8-----------(8)-------(8)-------(8)-------(8)--|

A|--6------8------5------3--|--6------8------(6)-----------------(6)-----------------|

E|--4------6------3---------|--4------6----------------------------------------------|

 

GUITAR 2:

 

e|--------------11--10---------------------11---------|--8---------8---------11--10----------------|

B|--11--11--11----------11--8--8--h9--h11------11--8--|-----11--8-----11--8----------11--8--9--11--|

G|----------------------------------------------------|--------------------------------------------|

D|----------------------------------------------------|--------------------------------------------|

A|----------------------------------------------------|--------------------------------------------|

E|----------------------------------------------------|--------------------------------------------|

 

GUITAR 1:

 

e|--------------------------|----------------------------|

B|--------------------------|----------------------------|

G|-----------------------5--|--4------6---6---6---6---8--|

D|--6------8------5------5--|--4------6---6---6---6---8--|

A|--6------8------5------3--|--2------4---4---4---4---6--|

E|--4------6------3---------|----------------------------|

 

GUITAR 2:

 

e|--------------11--10---------------------11--13--11--|----------------------9--11--9--13--11--|

B|--11--11--11----------11--8--8--h9--h11--------------|--12--12--11--11--12--------------------|

G|-----------------------------------------------------|----------------------------------------|

D|-----------------------------------------------------|----------------------------------------|

A|-----------------------------------------------------|----------------------------------------|

E|-----------------------------------------------------|----------------------------------------|

 

Outro:

 

GUITAR 1:

 

e|--------------------------|--------------------------------------------------------|

B|--------------------------|--------------------------------------------------------|

G|-----------------------5--|--------------------------(8)-----------------(8)-------|

D|--6------8------5------5--|--6------8-----------(8)-------(8)-------(8)-------(8)--|

A|--6------8------5------3--|--6------8------(6)-----------------(6)-----------------|

E|--4------6------3---------|--4------6----------------------------------------------|

 

GUITAR 2:

 

e|-------------------------------------------------------------------|

B|-------------------------------------------------------------------|

G|--8--8--10--8-----8--8--10--8------8--8--10--8--10--12--13--12--8--|

D|-------------------------------------------------------------------|

A|-------------------------------------------------------------------|

E|-------------------------------------------------------------------|

 

GUITAR 1:

 

e|--------------------------|----------------------------|

B|--------------------------|----------------------------|

G|-----------------------5--|--4------6---6---6---6---8--|

D|--6------8------5------5--|--4------6---6---6---6---8--|

A|--6------8------5------3--|--2------4---4---4---4---6--|

E|--4------6------3---------|----------------------------|

 

GUITAR 2:

 

e|-----------------------------------------------------------------------------|

B|-----------------------------------------------------------------------------|

G|--8--8--10--8-----8--8--10--8------10--12--10--12--12--13--12--10--8--10--8--|

D|-----------------------------------------------------------------------------|

A|-----------------------------------------------------------------------------|

E|-----------------------------------------------------------------------------|

©2015 by Fefe - Tron544

Sigueme en:

  • YouTube - White Circle
  • Facebook - White Circle
  • Instagram - White Circle
  • Twitter - White Circle
This site was designed with the
.com
website builder. Create your website today.
Start Now