~ URAGIRI NO YUUYAKE ~

TABLATURAS ~ By Fefe - Tron544

 

Verse/Estrofa:

 

GUITAR 1:

 

e|------------------------|

B|------------------------|

G|--7--/--9---------------|

D|--7--/--9------5--/--7--|

A|--5--/--7------5--/--7--|

E|---------------3--/--5--|

 

GUITAR 2:

 

e|-------------------------------------------------------------------|

B|-------------------------------------------------------------------|

G|-------------------------------------------------------------------|

D|--9------9--9------7------9--------9--7--7------7--7--7--7------7--|

A|-----10--------10-----10-----10-------------10--------------10-----|

E|-------------------------------------------------------------------|

 

GUITAR 1:

 

e|------------------------|

B|------------------------|

G|--7--/--9---------------|

D|--7--/--9------5--/--7--|

A|--5--/--7------5--/--7--|

E|---------------3--/--5--|

 

GUITAR 2:

 

e|---------------------------------------------------------------------------|

B|---------------------------------------------------------------------------|

G|-----7---------------------------------------------------------------------|

D|--9-----9--9--7--7------9--------9--7--7------7--7--7------7--7------9--7--|

A|--------------------10-------10-----------10-----------10--------10--------|

E|---------------------------------------------------------------------------|

 

 

Pre-Chorus/Pre-Estribillo:

 

GUITAR 1:

 

e|-----------------------------------------------2-----|-----------------------------------------------------|

B|--------1------------0------------1---------------3--|--------0------------0------------0------------3-----|

G|-----------2------------0------------0------2--------|-----------0------------0------------0------------4--|

D|-----2------------2------------2---------0-----------|-----2------------0------------0------------4--------|

A|--0------------2------------3------------------------|--2--------------------------------------2-----------|

E|-----------------------------------------------------|---------------2------------3------------------------|

 

GUITAR 2:

 

e|----------------------------|--------------------------------|

B|----------------------------|--------------------------------|

G|----------------------------|--------------------------------|

D|--7-------------------------|--9--8--9--8--9--8--9--8--9--9--|

A|-----10--7----7------7--10--|--------------------------------|

E|-----------------10---------|--------------------------------|

 

GUITAR 1:

 

e|-----------------------------------------------2-----|--(2)-x--x--x---x--x--x--x---2--2--2--2--|

B|--------1------------0------------1---------------3--|--(4)-x--x--x---x--x--x--x---4--4--4--4--|

G|-----------2------------0------------0------2--------|--(4)-x--x--x---x--x--x--x---4--4--4--4--|

D|-----2------------2------------2---------0-----------|--(4)-x--x--x---x--x--x--x---4--4--4--4--|

A|--0------------2------------3------------------------|--(2)-x--x--x---x--x--x--x---2--2--2--2--|

E|-----------------------------------------------------|-----------------------------------------|

 

GUITAR 2:

 

e|-------------------------------|-----------------------------------|

B|-------------------------------|-----------------------------------|

G|-------------------------------|--------------------8--8-----8--9--|

D|--7----------------------------|--7--9--9--9--9--9--------9--------|

A|-----10--7----7--7------7--10--|-----------------------------------|

E|--------------------10---------|-----------------------------------|

 

 

First Chorus/Primer Estribillo:

 

GUITAR 1:

 

e|--7--7--7--7--7--7--7--7---7--7--7--7--7--7--|--7--7--7--7--7--7---7--7--7--7--|

B|--8--8--8--7--8--7--7--8---8--7--8--7--7--8--|--8--7--8--7--7--8---8--7--8--7--|

G|--9--9--9--7--9--7--7--9---9--7--9--7--7--9--|--9--7--9--7--7--9---9--7--9--7--|

D|--9--9--9--7--9--7--7--9---9--7--9--7--7--9--|--9--7--9--7--7--9---9--7--9--7--|

A|--7--7--7--7--7--7--7--7---7--7--7--7--7--7--|--7--7--7--7--7--7---7--7--7--7--|

E|---------------------------------------------|---------------------------------|

 

GUITAR 2:

 

e|----------------------------|----------------------------------|

B|----------------------------|----------------------------------|

G|--9--9--9--7--9--12--9---9--|--9--9--9--7--9--11-/-12----7--9--|

D|----------------------------|----------------------------------|

A|----------------------------|----------------------------------|

E|----------------------------|----------------------------------|

 

GUITAR 1:

 

e|--3--3--3--3--3---0--0--0--0--|--(2)-x--x--x---x--x--x--x---2--2--2--2---2--2--2--2--|

B|--3--3--3--3--3---1--1--1--1--|--(4)-x--x--x---x--x--x--x---4--4--4--4---4--4--4--4--|

G|--4--4--4--4--4---2--2--2--2--|--(4)-x--x--x---x--x--x--x---4--4--4--4---4--4--4--4--|

D|--5--5--5--5--5---2--2--2--2--|--(4)-x--x--x---x--x--x--x---4--4--4--4---4--4--4--4--|

A|--5--5--5--5--5---0--0--0--0--|--(2)-x--x--x---x--x--x--x---2--2--2--2---2--2--2--2--|

E|------------------------------|------------------------------------------------------|

 

GUITAR 2:

 

e|-------------------------------------|-------------------------------------|

B|-------------------------------------|-------------------------------------|

G|--12--12--9--12----12--11--9--12--9--|--8--8--8--8--8--8--8--11--11--8--9--|

D|-------------------------------------|-------------------------------------|

A|-------------------------------------|-------------------------------------|

E|-------------------------------------|-------------------------------------|

 

GUITAR 1:

 

e|--7--7--7--7--7--7--7--7---7--7--7--7--7--7--|--7--7--7--7--7--7---7--7--7--7--|

B|--8--8--8--7--8--7--7--8---8--7--8--7--7--8--|--8--7--8--7--7--8---8--7--8--7--|

G|--9--9--9--7--9--7--7--9---9--7--9--7--7--9--|--9--7--9--7--7--9---9--7--9--7--|

D|--9--9--9--7--9--7--7--9---9--7--9--7--7--9--|--9--7--9--7--7--9---9--7--9--7--|

A|--7--7--7--7--7--7--7--7---7--7--7--7--7--7--|--7--7--7--7--7--7---7--7--7--7--|

E|---------------------------------------------|---------------------------------|

 

GUITAR 2:

 

e|----------------------------|----------------------------------|

B|----------------------------|----------------------------------|

G|--9--9--9--7--9--12--9---9--|--9--9--9--7--9--11-/-12----7--9--|

D|----------------------------|----------------------------------|

A|----------------------------|----------------------------------|

E|----------------------------|----------------------------------|

 

GUITAR 1:

 

e|--3--3--3--3--3---0--0--0--0--|--(2)-x--x--x---x--x--x--x---2--2--2--2--|

B|--3--3--3--3--3---1--1--1--1--|--(4)-x--x--x---x--x--x--x---4--4--4--4--|

G|--4--4--4--4--4---2--2--2--2--|--(4)-x--x--x---x--x--x--x---4--4--4--4--|

D|--5--5--5--5--5---2--2--2--2--|--(4)-x--x--x---x--x--x--x---4--4--4--4--|

A|--5--5--5--5--5---0--0--0--0--|--(2)-x--x--x---x--x--x--x---2--2--2--2--|

E|------------------------------|-----------------------------------------|

 

GUITAR 2:

 

e|-------------------------------------|-------------------------------------|

B|-------------------------------------|-------------------------------------|

G|--12--12--9--12----12--11--9--12--9--|--8--8--8--8--8--8--8--11--11--8--9--|

D|-------------------------------------|-------------------------------------|

A|-------------------------------------|-------------------------------------|

E|-------------------------------------|-------------------------------------|

 

 

Bridge/Puente:

 

GUITAR 1:

 

e|--7--7--7--7---7--7--7--7--|--7--7--7--7---7--7--7--7--|

B|--8--8--8--8---8--8--8--8--|--7--7--7--7---7--7--7--7--|

G|--9--9--9--9---9--9--9--9--|--7--7--7--7---7--7--7--7--|

D|--9--9--9--9---9--9--9--9--|--9--9--9--9---9--9--9--9--|

A|--7--7--7--7---7--7--7--7--|--9--9--9--9---9--9--9--9--|

E|---------------------------|--7--7--7--7---7--7--7--7--|

 

GUITAR 2:

 

e|--------------------------------------------------|----------------|

B|--------------------------------------------------|----------------|

G|--9--7--9--7--9--7--9--7--9--7--9--7--9--7--9--7--|-------9--7-----|

D|--------------------------------------------------|--9----------9--|

A|--------------------------------------------------|----------------|

E|--------------------------------------------------|----------------|

 

GUITAR 1:

 

e|--1--1--1--1---1--1--1--1--|--(2)-x--x--x---x--x--x--x---2--2--2--2---2--2--2--2--|

B|--1--1--1--1---1--1--1--1--|--(4)-x--x--x---x--x--x--x---4--4--4--4---4--4--4--4--|

G|--3--3--3--3---3--3--3--3--|--(4)-x--x--x---x--x--x--x---4--4--4--4---4--4--4--4--|

D|--3--3--3--3---3--3--3--3--|--(4)-x--x--x---x--x--x--x---4--4--4--4---4--4--4--4--|

A|--1--1--1--1---1--1--1--1--|--(2)-x--x--x---x--x--x--x---2--2--2--2---2--2--2--2--|

E|---------------------------|------------------------------------------------------|

 

GUITAR 2:

 

e|--------------------------------|-------------------------------------|

B|--------------------------------|-------------------------------------|

G|--7--7--7--7--7--7--7--7--7--7--|--8--8--8--8--8--8--8--11--11--8--9--|

D|--------------------------------|-------------------------------------|

A|--------------------------------|-------------------------------------|

E|--------------------------------|-------------------------------------|

 

 

Chorus/Segundo Estribillo:

 

GUITAR 1:

 

e|--7--7--7--7--7--7--7--7---7--7--7--7--7--7--|--7--7--7--7--7--7---7--7--7--7--|

B|--8--8--8--7--8--7--7--8---8--7--8--7--7--8--|--8--7--8--7--7--8---8--7--8--7--|

G|--9--9--9--7--9--7--7--9---9--7--9--7--7--9--|--9--7--9--7--7--9---9--7--9--7--|

D|--9--9--9--7--9--7--7--9---9--7--9--7--7--9--|--9--7--9--7--7--9---9--7--9--7--|

A|--7--7--7--7--7--7--7--7---7--7--7--7--7--7--|--7--7--7--7--7--7---7--7--7--7--|

E|---------------------------------------------|---------------------------------|

 

GUITAR 2:

 

e|----------------------------|----------------------------------|

B|----------------------------|----------------------------------|

G|--9--9--9--7--9--12--9---9--|--9--9--9--7--9--11-/-12----7--9--|

D|----------------------------|----------------------------------|

A|----------------------------|----------------------------------|

E|----------------------------|----------------------------------|

 

GUITAR 1:

 

e|--3--3--3--3--3---0--0--0--0--|--(2)-x--x--x---x--x--x--x---2--2--2--2--|

B|--3--3--3--3--3---1--1--1--1--|--(4)-x--x--x---x--x--x--x---4--4--4--4--|

G|--4--4--4--4--4---2--2--2--2--|--(4)-x--x--x---x--x--x--x---4--4--4--4--|

D|--5--5--5--5--5---2--2--2--2--|--(4)-x--x--x---x--x--x--x---4--4--4--4--|

A|--5--5--5--5--5---0--0--0--0--|--(2)-x--x--x---x--x--x--x---2--2--2--2--|

E|------------------------------|-----------------------------------------|

 

GUITAR 2:

 

e|-------------------------------------|-------------------------------------|

B|-------------------------------------|-------------------------------------|

G|--12--12--9--12----12--11--9--12--9--|--8--8--8--8--8--8--8--11--11--8--9--|

D|-------------------------------------|-------------------------------------|

A|-------------------------------------|-------------------------------------|

E|-------------------------------------|-------------------------------------|

 

 

Outro:

 

e|-------------------------------------------------------------|

B|-------------------------------------------------------------|

G|--9--9--9--9---11--11--11--11---12--12--12--12---4--4--4--4--|

D|-------------------------------------------------------------|

A|--7--7--7--7---9---9---9---9----10--10--10--10---2--2--2--2--|

E|-------------------------------------------------------------|

 

e|---------------------------------------------------------|--7--|

B|---------------------------------------------------------|--8--|

G|--5--5--5--5---7--7--7--7---9--9--9--9---11--11--11--11--|--9--|

D|---------------------------------------------------------|--9--|

A|--3--3--3--3---5--5--5--5---7--7--7--7---9---9---9---9---|--7--|

E|---------------------------------------------------------|-----|

 

Uragiri no Yuuyake - Tron544
00:00 / 00:00

©2019 by Fefe - Tron544

Sigueme en:

  • YouTube - White Circle
  • Facebook - White Circle
  • Instagram - White Circle
  • Twitter - White Circle
This site was designed with the
.com
website builder. Create your website today.
Start Now