~ UNRAVEL ~

TABLATURAS ~ By Fefe - Tron544

 

Intro:

 

GUITAR 2:

 

e|------------------------------------------------------------------|

B|------13---------------13-----------------------------------------|

G|--15------15--14--12-------15--14--12---12------------------------|

D|--------------------------------------------15---15--13---15--12--|

A|------------------------------------------------------------------|

E|------------------------------------------------------------------|

 

GUITAR 1:

 

e|-------------------------------------------------------------------|

B|--11----------11----------11-------13----------13----------13------|

G|----------10----------10-------------------10----------10----------|

D|------12----------12----------12-------12----------12----------12--|

A|-------------------------------------------------------------------|

E|-------------------------------------------------------------------|

 

GUITAR 2:

 

e|-------------------------------|

B|------------------15--13-/-15--|

G|-------------------------------|

D|--12--12--12--12---------------|

A|-------------------------------|

E|-------------------------------|

 

GUITAR 1:

 

e|-------------------------------------------------------------------|

B|--10----------10----------10---------------11----------11----------|

G|----------10----------10---------------10----------10----------10--|

D|------12----------12----------12---12----------12----------12------|

A|-------------------------------------------------------------------|

E|-------------------------------------------------------------------|

 

GUITAR 2:

 

e|-------------------------------|

B|-------------------------------|

G|--15--14--14--14--15--14-/-15--|

D|-------------------------------|

A|-------------------------------|

E|-------------------------------|

 

GUITAR 1:

 

e|-------------------------------------------------------------------|

B|--11----------11----------11-------13----------13----------13------|

G|----------10----------10-------------------10----------10----------|

D|------12----------12----------12-------12----------12----------12--|

A|-------------------------------------------------------------------|

E|-------------------------------------------------------------------|

 

GUITAR 2:

 

e|--------------------------------------------|

B|------13---------------13-------------------|

G|--15------15--14--12-------15--14--12---12--|

D|--------------------------------------------|

A|--------------------------------------------|

E|--------------------------------------------|

 

GUITAR 1:

 

e|-------------------------------------------------------------------|

B|--10----------10----------10-------11----------11----------11------|

G|----------10----------10-------------------10----------10----------|

D|------12----------12----------12-------12----------12----------12--|

A|-------------------------------------------------------------------|

E|-------------------------------------------------------------------|

 

GUITAR 2:

 

e|------------------------|

B|------------------------|

G|------------------------|

D|--15---15--13---15--12--|

A|------------------------|

E|------------------------|

 

GUITAR 1:

 

e|----------------------------------------------------------------------------------------------------|

B|--11----------11----------11-------13----------13----------13-------10----------10----------10------|

G|----------10----------10-------------------10----------10-------------------10----------10----------|

D|------12----------12----------12-------12----------12----------12-------12----------12----------12--|

A|----------------------------------------------------------------------------------------------------|

E|----------------------------------------------------------------------------------------------------|

 

GUITAR 2:

 

e|-------------------------------------------------------------|

B|------------------15--13-/-15--------------------------------|

G|--------------------------------15--14--14--14--15--14-/-15--|

D|--12--12--12--12---------------------------------------------|

A|-------------------------------------------------------------|

E|-------------------------------------------------------------|

 

GUITAR 1:

 

e|--------------------------------------------------------------|

B|--------------------------------------------------------------|

G|--------------------------------------------------------------|

D|--5--5--5--5--5--5--5--5---3------5--5--5--5--5--5--5--5---3--|

A|--5--5--5--5--5--5--5--5---3------5--5--5--5--5--5--5--5---3--|

E|--3--3--3--3--3--3--3--3---1------3--3--3--3--3--3--3--3---1--|

 

GUITAR 3:

 

e|--10--#--#--8--#--#--6--#--10--#--#--8--#--#--6--#---22--#--#--20--#--#--18--#--22--20--18--|

B|--------------------------------------------------------------------------------------------|

G|--------------------------------------------------------------------------------------------|

D|--------------------------------------------------------------------------------------------|

A|--------------------------------------------------------------------------------------------|

E|--------------------------------------------------------------------------------------------|

 

GUITAR 1:

 

e|--------------------------|

B|--------------------------|

G|----------------8------7--|

D|--5------3------8------7--|

A|--5------3------6------5--|

E|--3------1----------------|

 

GUITAR 2:

 

e|------18------15---------------------------------------18------15---8-h-10-t-18-p-8-h-10-t-17-p-8--|

B|--15------15---------------------------------------15------15--------------------------------------|

G|-------------------7-h-10-t-19-p-7-h-10-t-17-p-5---------------------------------------------------|

D|---------------------------------------------------------------------------------------------------|

A|---------------------------------------------------------------------------------------------------|

E|---------------------------------------------------------------------------------------------------|

 

GUITAR 1:

 

e|--------------------------|

B|--------------------------|

G|----------------8------7--|

D|--5------3------8------7--|

A|--5------3------6------5--|

E|--3------1----------------|

 

GUITAR 2:

 

e|------18------15---------------------------------------18------15---8-h-10-t-18-p-8-h-10-t-17-p-8--|

B|--15------15---------------------------------------15------15--------------------------------------|

G|-------------------7-h-10-t-19-p-7-h-10-t-17-p-5---------------------------------------------------|

D|---------------------------------------------------------------------------------------------------|

A|---------------------------------------------------------------------------------------------------|

E|---------------------------------------------------------------------------------------------------|

 

 

Verse/Estrofa:

 

GUITAR 2:

 

e|-------------------------------------------------------------------------|

B|-----------------------15--15--13--13-------13---------------------------|

G|--14--15--15--15---15-------------------15------15--14-------------------|

D|--------------------------------------------------------15--12---12------|

A|---------------------------------------------------------------------15--|

E|-------------------------------------------------------------------------|

 

 

Pre-Chorus/Pre-Estribillo:

 

GUITAR 1:

 

e|-------------------------------------------------------------------------------------------------------|

B|--11--10--10---10--11--10--10---10--11--10--10---10--11--10--10---10--11--10--10---10--11--10--10--10--|

G|-------------------------------------------------------------------------------------------------------|

D|-------------------------------------------------------------------------------------------------------|

A|-------------------------------------------------------------------------------------------------------|

E|-------------------------------------------------------------------------------------------------------|

 

GUITAR 2:

 

e|-------------------------------------------------------------------------------------------------------|

B|-------------------------------------------------------------------------------------------------------|

G|-------------------------------------------------------------------------------------------------------|

D|--15--15--12--12---12------12--12---15--15--12--12---12------12--12---15--15--12--12---12----------12--|

A|-----------------------15--------------------------------15--------------------------------15--15------|

E|-------------------------------------------------------------------------------------------------------|

 

 

Chorus/Estribillo:

 

GUITAR 1:

 

e|-----------------------------------------|

B|-----------------------------------------|

G|--8--8--8-----------------------7--7--7--|

D|--8--8--8---3--3--3---5--5--5---7--7--7--|

A|--6--6--6---3--3--3---5--5--5---5--5--5--|

E|------------1--1--1---3--3--3------------|

 

GUITAR 2:

 

e|------------------|---------------------------------------------------------------------------13----------|

B|--13--15--13--13--|--15--13--13--13-------------------------------15--13--13------------------------------|

G|------------------|------------------15--15--14--15--14-----------------------15--15--14--15------14--14--|

D|------------------|--------------------------------------15---15------------------------------------------|

A|------------------|---------------------------------------------------------------------------------------|

E|------------------|---------------------------------------------------------------------------------------|

 

GUITAR 1:

 

e|-------------------------------------------|

B|-------------------------------------------|

G|--8--8--8----------------------------------|

D|--8--8--8---3--3--3---5--5--5--5--5--5--5--|

A|--6--6--6---3--3--3---5--5--5--5--5--5--5--|

E|------------1--1--1---3--3--3--3--3--3--3--|

 

GUITAR 2:

 

e|--15--13---------------------------------------------------------------|

B|----------15-----------------------------------------------------------|

G|--------------15---14--15--12--14--14-/-15----14--15--14--12-----------|

D|--------------------------------------------------------------15---15--|

A|-----------------------------------------------------------------------|

E|-----------------------------------------------------------------------|

 

GUITAR 1:

 

e|-----------------------------------------------------------------|

B|-----------------------------------------------------------------|

G|--8--8--8--8--8-----------------------------------7--7--7--7--7--|

D|--8--8--8--8--8---3--3--3--3--3---5--5--5--5--5---7--7--7--7--7--|

A|--6--6--6--6--6---3--3--3--3--3---5--5--5--5--5---5--5--5--5--5--|

E|------------------1--1--1--1--1---3--3--3--3--3------------------|

 

GUITAR 2:

 

e|---------------------------------------------------------------------------------------13----------|

B|--15--13--13--13--13-------------------------------15--13--13--13--13------------------------------|

G|----------------------15--15--14--15--14-------------------------------15--15--14--15------14--14--|

D|------------------------------------------15---15--------------------------------------------------|

A|---------------------------------------------------------------------------------------------------|

E|---------------------------------------------------------------------------------------------------|

 

GUITAR 1:

 

e|-------------------------------------|

B|-------------------------------------|

G|--8--8--8--8--8--8--8--8-------------|

D|--8--8--8--8--8--8--8--8---3------3--|

A|--6--6--6--6--6--6--6--6---3------3--|

E|---------------------------1------1--|

 

GUITAR 2:

 

e|--15--13------------------------------------|

B|----------15--------------------------------|

G|--------------15---14--15--12--14--14-/-15--|

D|--------------------------------------------|

A|--------------------------------------------|

E|--------------------------------------------|

 

GUITAR 3:

 

e|--10--#--#--8--#--#--6--#--#--8--#--#--6--#--8--#---10--#--#--8--#--#--6--#--#--8--#--#--6--#--8--6--|

B|-----------------------------------------------------------------------------------------------------|

G|-----------------------------------------------------------------------------------------------------|

D|-----------------------------------------------------------------------------------------------------|

A|-----------------------------------------------------------------------------------------------------|

E|-----------------------------------------------------------------------------------------------------|

 

 

unravel - Tron544
00:00 / 00:00

©2019 by Fefe - Tron544

Sigueme en:

  • YouTube - White Circle
  • Facebook - White Circle
  • Instagram - White Circle
  • Twitter - White Circle
This site was designed with the
.com
website builder. Create your website today.
Start Now