unlasting

sword art online: alicization - War of Underworld

TABS ~ By Fefe (Tron544)

 

Verse/Estrofa:

e|-----------------------------------------------------------------|
B|--------------------------3---------------------------3--4/6--3--|
G|--5------5------5------5-----5-3-5------5------5-----------------|
D|-----------------------------------------------------------------|
A|-----------------------------------------------------------------|
E|-----------------------------------------------------------------|

e|-----------------------------------------------------------|
B|-----------------------------------------------------------|
G|--5--3----------------------5/7--5----------------------3--|
D|----------------------3--5---------------------------------|
A|-----------------------------------------------------------|
E|-----------------------------------------------------------|

e|-----------------------------------------------------------------|
B|---------------------------3----------------------------------6--|
G|--5------5------5-----3-5-----5-3-5------5------5------2-/-3-----|
D|-----------------------------------------------------------------|
A|-----------------------------------------------------------------|
E|-----------------------------------------------------------------|

e|---------------------------------|
B|--4/6--------4--3----------------|
G|-------------------5----------7--|
D|---------------------------------|
A|---------------------------------|
E|---------------------------------|

 


Pre-Chorus/Pre-Estribillo:

e|-----------------------------------------------------------------------------|
B|--------11--9/11------------11--11--11/13--10--------------------------------|
G|--/8---------------------------------------------10------------------12--10--|
D|-----------------------------------------------------12----------------------|
A|-----------------------------------------------------------------------------|
E|-----------------------------------------------------------------------------|

e|-------------------------------------------------------------------|
B|-------------------------------------------------------------------|
G|-----------12--10--------------------------------------------------|
D|--8----------------8-----8-8--10--12--10/12------------------------|
A|-------------------------------------------------------------------|
E|-------------------------------------------------------------------|

unlasting - Tron544
00:00 / 00:00
DONATE%20BUTTON%20(EN)_edited.png

Chorus/Estribillo:

e|---------------------|----------------------------------------------------------------------------------|
B|--13--11--10---------|-------------------------13--11--10-------------------------15--13----------------|
G|--------------10-----|--10--10/12--------------------------10----10--10/12----------------------10------|
D|-----------------12--|----------------------------------------12------------------------------------12--|
A|---------------------|----------------------------------------------------------------------------------|
E|---------------------|----------------------------------------------------------------------------------|

e|--------------------------------------------------------------------------------------------------------|
B|------------------------------------------------------------------------------------13--11--10----------|
G|-------------------------------------------------10--10-/-12----12-/-14---14-14/15--------------10------|
D|--10--10-8-10-8-10--12----10-8-10-8-10-8-10--12-----------------------------------------------------12--|
A|--------------------------------------------------------------------------------------------------------|
E|--------------------------------------------------------------------------------------------------------|

e|---------------------------------------------------------------------------------------|
B|-------------------------13--11--10--------13-/-15------------11/13--11----------------|
G|--10--10/12--------------------------10-10----------14--14---------------------10------|
D|-----------------------------------------------------------------------------------12--|
A|---------------------------------------------------------------------------------------|
E|---------------------------------------------------------------------------------------|

e|----------------------------------------------------------------------------------------------|
B|----------------------------------------------------------------13--11--10--------------------|
G|---------------------------------------10--12-/-14-------------------------10------10--10/12--|
D|--10------8--8--10--10-/-12----10--12------------------------------------------12-------------|
A|----------------------------------------------------------------------------------------------|
E|----------------------------------------------------------------------------------------------|

©2015 by Fefe - Tron544

Sigueme en:

  • YouTube - White Circle
  • Facebook - White Circle
  • Instagram - White Circle
  • Twitter - White Circle
This site was designed with the
.com
website builder. Create your website today.
Start Now