UNIVERSE MISSION

DRAGON BALL HEROES

TABS ~ By Fefe (Tron544)

 

Intro:

GUITAR (Rhythm):

e|---------------------------------------------------------------|
B|---------------------------------------------------------------|
G|---------------------------------------------------------------|
D|--5--5-5-#-#-5-#-4--4-4-#-#-4-#-2--2-2-#-#-2-#-2--2-2-#-#-2-#--|
A|--5--5-5-#-#-5-#-5--5-5-#-#-5-#-2--2-2-#-#-2-#-2--2-2-#-#-2-#--|
E|--3--3-3-#-#-3-#-2--2-2-#-#-2-#-0--0-0-#-#-0-#-0--0-0-#-#-0-#--|

GUITAR (Lead):

e|--10---12----------------------14--|
B|-----------10---12-----------------|
G|--------------------9--------------|
D|-----------------------------------|
A|-----------------------------------|
E|-----------------------------------|

GUITAR (Rhythm):

e|---------------------------------------------------------------|
B|---------------------------------------------------------------|
G|---------------------------------------------------------------|
D|--5--5-5-#-#-5-#-4--4-4-#-#-4-#-2--2-2-#-#-2-#-2--2-2-#-#-2-#--|
A|--5--5-5-#-#-5-#-5--5-5-#-#-5-#-2--2-2-#-#-2-#-2--2-2-#-#-2-#--|
E|--3--3-3-#-#-3-#-2--2-2-#-#-2-#-0--0-0-#-#-0-#-0--0-0-#-#-0-#--|

GUITAR (Lead):

e|--15---14-----------12--|
B|-----------15---12------|
G|------------------------|
D|------------------------|
A|------------------------|
E|------------------------|

GUITAR (Rhythm):

e|---------------------------------------------------------------|
B|---------------------------------------------------------------|
G|---------------------------------------------------------------|
D|--5--5-5-#-#-5-#-4--4-4-#-#-4-#-2--2-2-#-#-2-#-2--2-2-#-#-2-#--|
A|--5--5-5-#-#-5-#-5--5-5-#-#-5-#-2--2-2-#-#-2-#-2--2-2-#-#-2-#--|
E|--3--3-3-#-#-3-#-2--2-2-#-#-2-#-0--0-0-#-#-0-#-0--0-0-#-#-0-#--|

GUITAR (Lead):

e|--10---12----------------------14--|
B|-----------10---12-----------------|
G|--------------------9--------------|
D|-----------------------------------|
A|-----------------------------------|
E|-----------------------------------|

GUITAR (Rhythm):

e|---------------------------------------------------------------|
B|---------------------------------------------------------------|
G|---------------------------------------------------------------|
D|--5--5-5-#-#-5-#-4--4-4-#-#-4-#-2--2-2-#-#-2-#-2--2-2-#-#-2-#--|
A|--5--5-5-#-#-5-#-5--5-5-#-#-5-#-2--2-2-#-#-2-#-2--2-2-#-#-2-#--|
E|--3--3-3-#-#-3-#-2--2-2-#-#-2-#-0--0-0-#-#-0-#-0--0-0-#-#-0-#--|

GUITAR (Lead):

e|--15---14-----------12--|
B|-----------15---12------|
G|------------------------|
D|------------------------|
A|------------------------|
E|------------------------|

GUITAR (Rhythm):

e|------------------------------------------|
B|------------------------------------------|
G|------------------------------------------|
D|--7-7--7--7--5---7----7-7--7--7--5--6--7--|
A|--4-5--4--7--5---7----4-5--4--7--5--6--7--|
E|----------5--3---5------------5--3--4--5--|

GUITAR (Lead):

e|--9-10--9----------------9-10--9----------------|
B|-----------10--8---10-------------10--8--9--10--|
G|------------------------------------------------|
D|------------------------------------------------|
A|------------------------------------------------|
E|------------------------------------------------|

 


Verse/Estrofa:

GUITAR (Vocals):

e|----------------------------------------|
B|----------------------7-h-8---7---------|
G|------7-7-------7--9--------------7-----|
D|--7----------7-----------------------7--|
A|----------------------------------------|
E|----------------------------------------|

GUITAR (Rhythm):

e|--0-------0--------3----0-----|
B|--3-----------3----3-------3--|
G|--2----2-----------0----------|
D|--0----------------2----------|
A|-------------------3----------|
E|------------------------------|

GUITAR (Vocals):

e|-------------------------------------|
B|------------------------7------------|
G|------6---7------6---7------9-7-h-9--|
D|--9----------9-----------------------|
A|-------------------------------------|
E|-------------------------------------|

GUITAR (Rhythm):

e|---------------------------------------------------------------|
B|---------------------------------------------------------------|
G|---------------------------------------------------------------|
D|--5-x-x-5-x-x-5-x--4-x-x-4-x-x-4-x--2--#-2-2--#-7-#-7-#-5-#-7--|
A|--5-x-x-5-x-x-5-x--5-x-x-5-x-x-5-x--2--#-2-2--#-7-#-7-#-5-#-7--|
E|--3-x-x-3-x-x-3-x--2-x-x-2-x-x-2-x--0--#-0-0--#-5-#-5-#-3-#-3--|

GUITAR (Vocals):

e|----------------------------------------|
B|----------------------7-h-8---7---------|
G|------7-7-------7--9--------------7-----|
D|--7----------7-----------------------7--|
A|----------------------------------------|
E|----------------------------------------|

GUITAR (Rhythm):

e|-----------------------------------------------------------|
B|-----------------------------------------------------------|
G|--7--7-x-x-7-x-x-7-x-x-7--7-7--5--5-5--5-5-5-5-x-x-5--5-5--|
D|--7--7-x-x-7-x-x-7-x-x-7--7-7--5--5-5--5-5-5-5-x-x-5--5-5--|
A|--5--5-x-x-5-x-x-5-x-x-5--5-5--3--3-3--3-3-3-3-x-x-3--3-3--|
E|-----------------------------------------------------------|

GUITAR (Vocals):

e|--------------------------------------|
B|------------------------7----------7--|
G|------6---7------6---7-----9-9--7-----|
D|--9----------9------------------------|
A|--------------------------------------|
E|--------------------------------------|

GUITAR (Rhythm):

e|-------------------------------------------------------------------|
B|-------------------------------------------------------------------|
G|-------------------------------------------------------------------|
D|--5-x-x-5-x-x-5-x--4-x-x-4-x-x-4-x--2--#-2-2--#-4-4-4-4-4-4-4-4-4--|
A|--5-x-x-5-x-x-5-x--5-x-x-5-x-x-5-x--2--#-2-2--#-4-4-4-4-4-4-4-4-4--|
E|--3-x-x-3-x-x-3-x--2-x-x-2-x-x-2-x--0--#-0-0--#-2-2-2-2-2-2-2-2-2--|

Universe Mission - Tron544
00:00 / 00:00
DONATE%20BUTTON%20(EN)_edited.png

Pre-Chorus/Pre-Estribillo:

GUITAR (Vocals):

e|----------------------------------------------------|
B|----------------------------------------------------|
G|-------------------7---9---------------------7---9--|
D|--9--7-9-7-9-7-9-----------9-9-7-9-7-9-7-9----------|
A|----------------------------------------------------|
E|----------------------------------------------------|

GUITAR (Rhythm):

e|-----------------------------------------------------|
B|-----------------------------------------------------|
G|--4-4----7-7----------------4-4----7-7---------------|
D|--4-4----7-7----2---5---7---4-4----7-7----2---5---7--|
A|--2-2----5-5----2---5---7---2-2----5-5----2---5---7--|
E|----------------0---3---5-----------------0---3---5--|

GUITAR (Vocals):

e|-----------------------------------------------------------------|
B|--7-7---7--7---7---8-/-10---8---7--------7-7-7---------10--------|
G|------9------9---------------------9--7--------9--9-9-------9-9--|
D|-----------------------------------------------------------------|
A|-----------------------------------------------------------------|
E|-----------------------------------------------------------------|

GUITAR (Rhythm):

e|--------------------------------------------------------|
B|--------------------------------------------------------|
G|--4-4----7-7--------7---6--5----------------------------|
D|--4-4----7-7----2---7---7--5----------7---7-7---7--7-7--|
A|--2-2----5-5----2---5---4--3----------7---7-7---7--7-7--|
E|----------------0---------------------5---5-5---5--5-5--|

 


Chorus/Estribillo:

GUITAR (Vocals):

e|-----------------|----------------------------------------------------|
B|---------7-9-10--|--9------7--9-----------7-9-10-9------7--9----------|
G|--7-/-9----------|-------9---------7-/-9--------------9---------6--8--|
D|-----------------|----------------------------------------------------|
A|-----------------|----------------------------------------------------|
E|-----------------|----------------------------------------------------|

GUITAR (Rhythm):

e|------------------------------------------------------------|
B|------------------------------------------------------------|
G|--9--9-9--9-9-9-9--9-9--9-9-9--6--6-6--6-6-6-6--6-6--6-6-6--|
D|--9--9-9--9-9-9-9--9-9--9-9-9--6--6-6--6-6-6-6--6-6--6-6-6--|
A|--7--7-7--7-7-7-7--7-7--7-7-7--4--4-4--4-4-4-4--4-4--4-4-4--|
E|------------------------------------------------------------|

GUITAR (Vocals):

e|--------------------------------------------------------|
B|------------------7--9--10--9--7----7-----------7-9-10--|
G|--9--8--6-8--9-------------------9-------7-/-9----------|
D|--------------------------------------------------------|
A|--------------------------------------------------------|
E|--------------------------------------------------------|

GUITAR (Rhythm):

e|-------------------------------------------------------------|
B|-------------------------------------------------------------|
G|-----------------------------11--11--11-11-11----------------|
D|--7--7--7-7-7-6--6-6-6--6-6--11--11--11-11-11-9--9-9-9--9-9--|
A|--7--7--7-7-7-7--7-7-7--7-7--9---9---9--9--9--9--9-9-9--9-9--|
E|--5--5--5-5-5-4--4-4-4--4-4-------------------7--7-7-7--7-7--|

GUITAR (Vocals):

e|----------------------------------------------------|
B|--9------7--9-----------7-9-10-9------7--9----------|
G|-------9---------7-/-9--------------9---------6--8--|
D|----------------------------------------------------|
A|----------------------------------------------------|
E|----------------------------------------------------|

GUITAR (Rhythm):

e|------------------------------------------------------------|
B|------------------------------------------------------------|
G|--9--9-9--9-9-9-9--9-9--9-9-9--6--6-6--6-6-6-6--6-6--6-6-6--|
D|--9--9-9--9-9-9-9--9-9--9-9-9--6--6-6--6-6-6-6--6-6--6-6-6--|
A|--7--7-7--7-7-7-7--7-7--7-7-7--4--4-4--4-4-4-4--4-4--4-4-4--|
E|------------------------------------------------------------|

GUITAR (Vocals):

e|-------------------------------------------------|
B|------------------7--9--10--9--7----7------------|
G|--9--8--6-8--9-------------------9----------6-8--|
D|-------------------------------------------------|
A|-------------------------------------------------|
E|-------------------------------------------------|

GUITAR (Rhythm):

e|-------------------------------------------------------------|
B|-------------------------------------------------------------|
G|-----------------------------11--11--11-11-11----------------|
D|--7--7--7-7-7-6--6-6-6--6-6--11--11--11-11-11-9--9-9-9--9-9--|
A|--7--7--7-7-7-7--7-7-7--7-7--9---9---9--9--9--9--9-9-9--9-9--|
E|--5--5--5-5-5-4--4-4-4--4-4-------------------7--7-7-7--7-7--|

GUITAR (Vocals):

e|--------------------------|
B|---------7----7-9--7-9-7--|
G|--9--8-9----9-------------|
D|--------------------------|
A|--------------------------|
E|--------------------------|

GUITAR (Rhythm):

e|---------------------------------------------|
B|---------------------------------------------|
G|--#-6--6-6-#-8--8-8-#-9--9-9-#-11--11-11-11--|
D|--#-6--6-6-#-9--9-9-#-9--9-9-#-11--11-11-11--|
A|--#-4--4-4-#-6--6-6-#-7--7-7-#-9---9--9--9---|
E|---------------------------------------------|

GUITAR (Vocals):

e|---------------------------------|
B|--8----8----10-10--10--10-10--9--|
G|---------------------------------|
D|---------------------------------|
A|---------------------------------|
E|---------------------------------|

GUITAR (Rhythm):

e|----------------------------------------------------------|
B|----------------------------------------------------------|
G|--5--5-5--5-5-5-7-7-#-7--7-7------------------------------|
D|--5--5-5--5-5-5-7-7-#-7--7-7--2---2-2---2-#-2-#-2-2--4-5--|
A|--3--3-3--3-3-3-5-5-#-5--5-5--2---2-2---2-#-2-#-2-2--5-5--|
E|------------------------------0---0-0---0-#-0-#-0-0--2-3--|

©2015 by Fefe - Tron544

Sigueme en:

  • YouTube - White Circle
  • Facebook - White Circle
  • Instagram - White Circle
  • Twitter - White Circle
This site was designed with the
.com
website builder. Create your website today.
Start Now