ULTIMATE BATTLE (GOKU vs JIREN)

DRAGON BALL SUPER

TABS ~ By Fefe (Tron544)

 

Intro:

GUITAR (Rhythm):

e|-----|---------------------------------------------|
B|-----|---------------------------------------------|
G|--5--|--5--5--5--5--5--5--5---5--5--5--5--5--5-----|
D|--5--|--5--5--5--5--5--5--5---5--5--5--5--5--5--6--|
A|--3--|--3--3--3--3--3--3--3---3--3--3--3--3--3--6--|
E|-----|------------------------------------------4--|

GUITAR (Riff):

e|------|---------------------------------------------------|
B|------|---------------------------------------------------|
G|------|------8------10-p-8-----------8------10-/-12-------|
D|--10--|--10-----10-----------10--10-----10------------10--|
A|------|---------------------------------------------------|
E|------|---------------------------------------------------|

GUITAR (Bass):

G|-----|---------------------------------------------|
D|-----|---------------------------------------------|
A|--3--|--3--3--3--3--3--3--3---3--3--3--3--3--3-----|
E|-----|------------------------------------------4--|

GUITAR (Rhythm):

e|---------------------------------------------|
B|---------------------------------------------|
G|---------------------------------------------|
D|--6--6--6--6--6--6--6---6--6--6--6--6--6--3--|
A|--6--6--6--6--6--6--6---6--6--6--6--6--6--3--|
E|--4--4--4--4--4--4--4---4--4--4--4--4--4--1--|

GUITAR (Riff):

e|--------------------------------------------------------|
B|--------------------------------------------------------|
G|------8------10-p-8-----------8------10-/-12---10-h-12--|
D|--10-----10-----------10--10-----10---------------------|
A|--------------------------------------------------------|
E|--------------------------------------------------------|

GUITAR (Bass):

G|---------------------------------------------|
D|---------------------------------------------|
A|---------------------------------------------|
E|--4--4--4--4--4--4--4---4--4--4--4--4--4--1--|


GUITAR (Rhythm):

e|------------------------------------------------------------------|
B|------------------------------------------------------------------|
G|------------------------------------------------------------------|
D|--3--3--3--3--3--3--3---3--3--3--3--3--3--3---6--5---6--5---6--5--|
A|--3--3--3--3--3--3--3---3--3--3--3--3--3--3---6--5---6--5---6--5--|
E|--1--1--1--1--1--1--1---1--1--1--1--1--1--1---4--3---4--3---4--3--|

GUITAR (Riff):

e|-------------------------------------------------------------------|
B|--9--9--9--8--8--8-----------------------------9--8---9--8---9--8--|
G|--------------------10--10--10--8--8--8--10------------------------|
D|-------------------------------------------------------------------|
A|-------------------------------------------------------------------|
E|-------------------------------------------------------------------|

GUITAR (Bass):

G|------------------------------------------------------------------|
D|------------------------------------------------------------------|
A|------------------------------------------------------------------|
E|--1--1--1--1--1--1--1---1--1--1--1--1--1--1---4--3---4--3---4--3--|

 


First Chorus/Primer Estribillo:

GUITAR (Rhythm):

e|------------------------------------------------------------------------------------|
B|------------------------------------------------------------------------------------|
G|------------------------------------------------------------------------------------|
D|--10------8--x--x--x--x--8--x--x--x--x--8---6------8--x--x--x--x--8--x--x--x--x--8--|
A|--10------8--x--x--x--x--8--x--x--x--x--8---6------8--x--x--x--x--8--x--x--x--x--8--|
E|--8-------6--x--x--x--x--6--x--x--x--x--6---4------6--x--x--x--x--6--x--x--x--x--6--|

GUITAR (Vocals):

e|-------------------------------------------------------|
B|------------------------------------------------7------|
G|--8--8--8--8--8---7----------8--8--8--8--8---9------9--|
D|---------------------9---7-----------------------------|
A|-------------------------------------------------------|
E|-------------------------------------------------------|

GUITAR (Bass):

G|--------------------------------------------------------|
D|--------------------------------------------------------|
A|--------------------------------------------------------|
E|--8------6--#--#--6--#--#--6---4---6--#--#--6--#--#--6--|

GUITAR (Rhythm):

e|-----------------------------------------------------------------------------------|
B|-----------------------------------------------------------------------------------|
G|-----------------------------------------------------------------------------------|
D|--10--10--10--10--10--10---8--8--8--8--8--8---6--6--6--6--6--6---8--8--8--8--8--8--|
A|--10--10--10--10--10--10---8--8--8--8--8--8---6--6--6--6--6--6---8--8--8--8--8--8--|
E|--8---8---8---8---8---8----6--6--6--6--6--6---4--4--4--4--4--4---6--6--6--6--6--6--|

GUITAR (Vocals):

e|------------------------------------------|
B|-----------------9---8--------------------|
G|--8--8--8--8--8----------10---8----8--10--|
D|------------------------------------------|
A|------------------------------------------|
E|------------------------------------------|

GUITAR (Bass):

G|-----------------------------------------------------------------------------------------------------|
D|-----------------------------------------------------------------------------------------------------|
A|-----------------------------------------------------------------------------------------------------|
E|--8--8--8--8--8--8--8--8---6--6--6--6--6--6--6--6---4--4--4--4--4--4--4--4---6--6--6--6--6--6--6--6--|

GUITAR (Rhythm):

e|--------------------------------------------------------------------------------|
B|--------------------------------------------------------------------------------|
G|--------------------------------------------------------------------------------|
D|--6--x--x--6--x--x--6--x--x--6--x--x---8--x--x--x--x--8--x--x--8--x--x--8---10--|
A|--6--x--x--6--x--x--6--x--x--6--x--x---8--x--x--x--x--8--x--x--8--x--x--8---10--|
E|--4--x--x--4--x--x--4--x--x--4--x--x---6--x--x--x--x--6--x--x--6--x--x--6---8---|

GUITAR (Vocals):

e|------------------------------------------------|
B|---------8----------------------8------------8--|
G|--8--10-----10---8------8---10-----10---10------|
D|--------------------10--------------------------|
A|------------------------------------------------|
E|------------------------------------------------|

GUITAR (Bass):

G|-----------------------------------------------|
D|-----------------------------------------------|
A|-----------------------------------------------|
E|--4--4--4--4--4--4--4--4---6--6--6--6---6---8--|

 


Verse/Estrofa:

GUITAR (Rhythm):

e|----------------------------------------------------------------------------------------------|
B|----------------------------------------------------------------------------------------------|
G|----------------------------------------------------------------------------------------------|
D|--(7)-x--x--x--x--x--x--x--(5)-x--x--x--x--x--x--x--(3)-x--x--x--x--x--x--x---5--2--5---5--5--|
A|--(7)-x--x--x--x--x--x--x--(5)-x--x--x--x--x--x--x--(3)-x--x--x--x--x--x--x---5--2--5---5--5--|
E|--(5)-x--x--x--x--x--x--x--(3)-x--x--x--x--x--x--x--(1)-x--x--x--x--x--x--x---3--0--3---3--3--|

GUITAR (Vocals):

e|------------------------------------------------|
B|------------------------------------------------|
G|-----------5---4--------------------------------|
D|-----5--7----------7--5---5--7------7--5-----5--|
A|--7---------------------------------------7-----|
E|------------------------------------------------|

GUITAR (Bass):

G|---------------------------------------------------------------------------------------------|
D|---------------------------------------------------------------------------------------------|
A|---------------------------------------------------------------------------------------------|
E|--5--5--5--5--5--5--5--5---3--3--3--3--3--3--3--3---1--1--1--1--1--1--1--1---3--0--3---3--3--|

GUITAR (Rhythm):

e|----------------------------------------------------------------------------------------------|
B|----------------------------------------------------------------------------------------------|
G|----------------------------------------------------------------------------------------------|
D|--(7)-x--x--x--x--x--x--x--(5)-x--x--x--x--x--x--x--(3)-x--x--x--x--x--x--x---5--2--5---5--5--|
A|--(7)-x--x--x--x--x--x--x--(5)-x--x--x--x--x--x--x--(3)-x--x--x--x--x--x--x---5--2--5---5--5--|
E|--(5)-x--x--x--x--x--x--x--(3)-x--x--x--x--x--x--x--(1)-x--x--x--x--x--x--x---3--0--3---3--3--|

GUITAR (Vocals):

e|---------------------------------------------------------|
B|------------------------------------5--5--5--------------|
G|-----------7---4-----------------------------7--7--5--7--|
D|-----5--7----------7--5---5--7---------------------------|
A|--7------------------------------------------------------|
E|---------------------------------------------------------|

GUITAR (Bass):

G|---------------------------------------------------------------------------------------------|
D|---------------------------------------------------------------------------------------------|
A|---------------------------------------------------------------------------------------------|
E|--5--5--5--5--5--5--5--5---3--3--3--3--3--3--3--3---1--1--1--1--1--1--1--1---3--0--3---3--3--|


Pre-Chorus/Pre-Estribillo:

GUITAR (Rhythm):

e|-----------------------------------------------------------------------------------------------|
B|-----------------------------------------------------------------------------------------------|
G|-----------------------------------------------------------------------------------------------|
D|--3--3----3--3----3---5--5----5--5----5---3---3---3--3---5---5---5--5---7---7---7--7---9---10--|
A|--3--3----3--3----3---5--5----5--5----5---3---3---3--3---5---5---5--5---7---7---7--7---9---10--|
E|--1--1----1--1----1---3--3----3--3----3---1---1---1--1---3---3---3--3---5---5---5--5---7---8---|

GUITAR (Vocals):

e|--------------------------------------------------------------------------------------------|
B|---------------------------5------------------------------------------------------5------5--|
G|------4---5---7--------4-------7----5-p-4--5-p-4--5---/-7--7----5-p-4--5-p-4--5------7------|
D|--7----------------7------------------------------------------------------------------------|
A|--------------------------------------------------------------------------------------------|
E|--------------------------------------------------------------------------------------------|

GUITAR (Bass):

G|-----------------------------------------------------------------------------------------------|
D|-----------------------------------------------------------------------------------------------|
A|-----------------------------------------------------------------------------------------------|
E|--1--1----1--1----1---3--3----3--3----3---1---1---1--1---3---3---3--3---5---5---5--5---7---8---|


Second Chorus/Segundo Estribillo:

GUITAR (Vocals):

e|------------------------------------------------------|
B|-----------------------------------------------5------|
G|--5--5--5--5--5---4---------5--5--5--5--5---7------7--|
D|---------------------7--5-----------------------------|
A|------------------------------------------------------|
E|------------------------------------------------------|

GUITAR (Bass):

G|--------------------------------------|
D|--------------------------------------|
A|--------------------------------------|
E|--5----------3----------1----------3--|

GUITAR (Rhythm):

e|-------------------------------------------------|
B|-------------------------------------------------|
G|-------------------------------------------------|
D|--(5)-x--x--x--x--x--x---5--5--5--5--5--5--5--5--|
A|--(5)-x--x--x--x--x--x---5--5--5--5--5--5--5--5--|
E|--(3)-x--x--x--x--x--x---3--3--3--3--3--3--3--3--|

GUITAR (Vocals):

e|-----------------------------------------------|
B|-----------------6---5------------5------6-/-8-|
G|--5--5--5--5--5----------7---5-------7---------|
D|-----------------------------------------------|
A|-----------------------------------------------|
E|-----------------------------------------------|

GUITAR (Bass):

G|---------------------------------------------------------------------------------------------|
D|---------------------------------------------------------------------------------------------|
A|------7----------5----------3------------------------------/-10--10--10--10--10--10--10--10--|
E|--5------5---3------3---1------1---3--3--3--3--3--3--3--3------------------------------------|


GUITAR (Rhythm):

e|-----------------------------------------------------------------------------------|
B|-----------------------------------------------------------------------------------|
G|-----------------------------------------------------------------------------------|
D|--10--10--10--10--10--10---8--8--8--8--8--8---6--6--6--6--6--6---8--8--8--8--8--8--|
A|--10--10--10--10--10--10---8--8--8--8--8--8---6--6--6--6--6--6---8--8--8--8--8--8--|
E|--8---8---8---8---8---8----6--6--6--6--6--6---4--4--4--4--4--4---6--6--6--6--6--6--|

GUITAR (Vocals):

e|-------------------------------------------------------|
B|------------------------------------------------7------|
G|--8--8--8--8--8---7----------8--8--8--8--8---9------9--|
D|---------------------9---7-----------------------------|
A|-------------------------------------------------------|
E|-------------------------------------------------------|

GUITAR (Bass):

G|-----------------------------------------------------------------------------------------------------|
D|-----------------------------------------------------------------------------------------------------|
A|-----------------------------------------------------------------------------------------------------|
E|--8--8--8--8--8--8--8--8---6--6--6--6--6--6--6--6---4--4--4--4--4--4--4--4---6--6--6--6--6--6--6--6--|

GUITAR (Rhythm):

e|-----------------------------------------------------------------------------------|
B|-----------------------------------------------------------------------------------|
G|-----------------------------------------------------------------------------------|
D|--10--10--10--10--10--10---8--8--8--8--8--8---6--6--6--6--6--6---8--8--8--8--8--8--|
A|--10--10--10--10--10--10---8--8--8--8--8--8---6--6--6--6--6--6---8--8--8--8--8--8--|
E|--8---8---8---8---8---8----6--6--6--6--6--6---4--4--4--4--4--4---6--6--6--6--6--6--|

GUITAR (Vocals):

e|------------------------------------------|
B|-----------------9---8--------------------|
G|--8--8--8--8--8----------10---8----8--10--|
D|------------------------------------------|
A|------------------------------------------|
E|------------------------------------------|

GUITAR (Bass):

G|-----------------------------------------------------------------------------------------------------|
D|-----------------------------------------------------------------------------------------------------|
A|-----------------------------------------------------------------------------------------------------|
E|--8--8--8--8--8--8--8--8---6--6--6--6--6--6--6--6---4--4--4--4--4--4--4--4---6--6--6--6--6--6--6--6--|

GUITAR (Rhythm):

e|---------------------------------------------------------------------------|
B|---------------------------------------------------------------------------|
G|---------------------------------------------------------------------------|
D|--6--x--x--6--x--x--6--x--x--6--x--x---8--x--x--8--x--x--8--x--x--8--x--x--|
A|--6--x--x--6--x--x--6--x--x--6--x--x---8--x--x--8--x--x--8--x--x--8--x--x--|
E|--4--x--x--4--x--x--4--x--x--4--x--x---6--x--x--6--x--x--6--x--x--6--x--x--|

GUITAR (Vocals):

e|---------------------------------------------------|
B|---------8----------------------8------------------|
G|--8--10-----10---8------8---10-----10--------------|
D|--------------------10------------------10--8--10--|
A|---------------------------------------------------|
E|---------------------------------------------------|

GUITAR (Bass):

G|---------------------------------------------------|
D|---------------------------------------------------|
A|---------------------------------------------------|
E|--4--4--4--4--4--4--4--4---6--6--6--6--6--6--6--6--|

GUITAR (Rhythm):

e|---------------------------------------------------------|
B|---------------------------------------------------------|
G|---------------------------------------------------------|
D|--10---10--10--10--10--10--10---10--10--10---10--10--10--|
A|--10---10--10--10--10--10--10---10--10--10---10--10--10--|
E|--8----8---8---8---8---8---8----8---8---8----8---8---8---|

GUITAR (Bass):

G|---------------------------------------------------------|
D|---------------------------------------------------------|
A|---------------------------------------------------------|
E|--8----8---8---8---8---8---8----8---8---8----8---8---8---|

GUITAR (Rhythm):

e|--------------------------------------------------------------------------------|
B|--------------------------------------------------------------------------------|
G|--------------------------------------------------------------------------------|
D|--6--x--x--6--x--x--6--x--x--6--x--x---8--x--x--x--x--8--x--x--8--x--x--8---10--|
A|--6--x--x--6--x--x--6--x--x--6--x--x---8--x--x--x--x--8--x--x--8--x--x--8---10--|
E|--4--x--x--4--x--x--4--x--x--4--x--x---6--x--x--x--x--6--x--x--6--x--x--6---8---|

GUITAR (Vocals):

e|------------------------------------------------|
B|---------8----------------------8------------8--|
G|--8--10-----10---8------8---10-----10---10------|
D|--------------------10--------------------------|
A|------------------------------------------------|
E|------------------------------------------------|

GUITAR (Bass):

G|-----------------------------------------------|
D|-----------------------------------------------|
A|-----------------------------------------------|
E|--4--4--4--4--4--4--4--4---6--6--6--6---6---8--|

Ultimate Battle - Tron544
00:00 / 00:00
DONATE%20BUTTON%20(EN)_edited.png

Solo:

GUITAR (Rhythm):

e|----------------------------------------------------------------------------------------------|
B|----------------------------------------------------------------------------------------------|
G|----------------------------------------------------------------------------------------------|
D|--(7)-x--x--x--x--x--x--x--(5)-x--x--x--x--x--x--x--(3)-x--x--x--x--x--x--x---5--2--5---5--5--|
A|--(7)-x--x--x--x--x--x--x--(5)-x--x--x--x--x--x--x--(3)-x--x--x--x--x--x--x---5--2--5---5--5--|
E|--(5)-x--x--x--x--x--x--x--(3)-x--x--x--x--x--x--x--(1)-x--x--x--x--x--x--x---3--0--3---3--3--|

GUITAR (Vocals):

e|---------------------------------------------------------------------------------|
B|--5------------------------------------------------------------------------------|
G|--7-b----7-p-5--7----12--12-p-10---10--10-\-9---9--9-\-7---7--7-p-5--7----7-/-9--|
D|---------------------------------------------------------------------------------|
A|---------------------------------------------------------------------------------|
E|---------------------------------------------------------------------------------|

GUITAR (Bass):

G|---------------------------------------------------------------------------------------------|
D|---------------------------------------------------------------------------------------------|
A|---------------------------------------------------------------------------------------------|
E|--5--5--5--5--5--5--5--5---3--3--3--3--3--3--3--3---1--1--1--1--1--1--1--1---3--0--3---3--3--|

GUITAR (Rhythm):

e|----------------------------------------------------------------------------------------------|
B|----------------------------------------------------------------------------------------------|
G|----------------------------------------------------------------------------------------------|
D|--(7)-x--x--x--x--x--x--x--(5)-x--x--x--x--x--x--x--(3)-x--x--x--x--x--x--x---5--2--5---5--5--|
A|--(7)-x--x--x--x--x--x--x--(5)-x--x--x--x--x--x--x--(3)-x--x--x--x--x--x--x---5--2--5---5--5--|
E|--(5)-x--x--x--x--x--x--x--(3)-x--x--x--x--x--x--x--(1)-x--x--x--x--x--x--x---3--0--3---3--3--|

GUITAR (Vocals):

e|--------------------------------------------------------------------------------|
B|---------------------------------------3-----5-----6------8---10--8------8--10--|
G|---------5-p-4-------------------5------------------------------------9---------|
D|--7-------------5--2---2--3--5------3-----3-----3-----3---5---7---5-------------|
A|--------------------------------------------------------------------------------|
E|--------------------------------------------------------------------------------|

GUITAR (Bass):

G|---------------------------------------------------------------------------------------------|
D|---------------------------------------------------------------------------------------------|
A|---------------------------------------------------------------------------------------------|
E|--5--5--5--5--5--5--5--5---3--3--3--3--3--3--3--3---1--1--1--1--1--1--1--1---3--0--3---3--3--|

GUITAR (Rhythm):

e|-------------------------------------------------------------|
B|-------------------------------------------------------------|
G|-------------------------------------------------------------|
D|--7---7---7--7---5---5---5--5---3---3---3--3---5---5---5--5--|
A|--7---7---7--7---5---5---5--5---3---3---3--3---5---5---5--5--|
E|--5---5---5--5---3---3---3--3---1---1---1--1---3---3---3--3--|

GUITAR (Lead):

e|--8--7----------------8--7--10-/-12-------------8--10-/-15--15--15---13---12---10--12--10------------15--|
B|--------8------8--10---------------------8--10----------------------------------------------13-15-17-----|
G|------------9-------------------------9------------------------------------------------------------------|
D|---------------------------------------------------------------------------------------------------------|
A|---------------------------------------------------------------------------------------------------------|
E|---------------------------------------------------------------------------------------------------------|

GUITAR (Bass):

G|-------------------------------------------------------------|
D|-------------------------------------------------------------|
A|-------------------------------------------------------------|
E|--5---5---5--5---3---3---3--3---1---1---1--1---3---3---3--3--|

GUITAR (Rhythm):

e|---------------------------------------------------------------------------|
B|---------------------------------------------------------------------------|
G|---------------------------------------------------------------------------|
D|--7--x--x--7--x--x--7--x--x--7--x--x---5--x--x--5--x--x--5--x--x--5--x--x--|
A|--7--x--x--7--x--x--7--x--x--7--x--x---5--x--x--5--x--x--5--x--x--5--x--x--|
E|--5--x--x--5--x--x--5--x--x--5--x--x---3--x--x--3--x--x--3--x--x--3--x--x--|

GUITAR (Lead):

e|--17-17-17-17-17-17-17-17-17-17-17-17-17p15----15-17--19-19-19-19-19-19-19-19-19-19-19-19-17p15----15-17--|
B|--------------------------------------------17--------------------------------------------------17--------|
G|----------------------------------------------------------------------------------------------------------|
D|----------------------------------------------------------------------------------------------------------|
A|----------------------------------------------------------------------------------------------------------|
E|----------------------------------------------------------------------------------------------------------|

GUITAR (Bass):

G|---------------------------------------------------|
D|---------------------------------------------------|
A|---------------------------------------------------|
E|--5--5--5--5--5--5--5--5---3--3--3--3--3--3--3--3--|

GUITAR (Rhythm):

e|---------------------------------------------------------------------|
B|---------------------------------------------------------------------|
G|---------------------------------------------------------------------|
D|--3--x--x--3--x--x--3--x--x--3--x--x---5--x--x--5--x--x--5--5--5--5--|
A|--3--x--x--3--x--x--3--x--x--3--x--x---5--x--x--5--x--x--5--5--5--5--|
E|--1--x--x--1--x--x--1--x--x--1--x--x---3--x--x--3--x--x--3--3--3--3--|

GUITAR (Lead):

e|--20-20-20-20-20-20-20p19p17-20-20-20p19p17-20-20-20p19p17--22-b---22-------------|
B|---------------------------------------------------------------------------8--10--|
G|------------------------------------------------------------------------9---------|
D|----------------------------------------------------------------------------------|
A|----------------------------------------------------------------------------------|
E|----------------------------------------------------------------------------------|

GUITAR (Bass):

G|---------------------------------------------------|
D|---------------------------------------------------|
A|---------------------------------------------------|
E|--1--1--1--1--1--1--1--1---3--3--3--3--3--3--3--3--|

GUITAR (Rhythm):

e|-------------------------------------------------------------|
B|-------------------------------------------------------------|
G|-------------------------------------------------------------|
D|--7---7---7--7---5---5---5--5---3---3---3--3---5---5---5--5--|
A|--7---7---7--7---5---5---5--5---3---3---3--3---5---5---5--5--|
E|--5---5---5--5---3---3---3--3---1---1---1--1---3---3---3--3--|

GUITAR (Lead):

e|--8--7----------------8--7--10-/-12-------------8--10-/-15--15--15---13---12---10--12--10------------15--|
B|--------8------8--10---------------------8--10----------------------------------------------13-15-17-----|
G|------------9-------------------------9------------------------------------------------------------------|
D|---------------------------------------------------------------------------------------------------------|
A|---------------------------------------------------------------------------------------------------------|
E|---------------------------------------------------------------------------------------------------------|

GUITAR (Bass):

G|-------------------------------------------------------------|
D|-------------------------------------------------------------|
A|-------------------------------------------------------------|
E|--5---5---5--5---3---3---3--3---1---1---1--1---3---3---3--3--|

GUITAR (Rhythm):

e|---------------------------------------------------------------------------|
B|---------------------------------------------------------------------------|
G|---------------------------------------------------------------------------|
D|--7--x--x--7--x--x--7--x--x--7--x--x---5--x--x--5--x--x--5--x--x--5--x--x--|
A|--7--x--x--7--x--x--7--x--x--7--x--x---5--x--x--5--x--x--5--x--x--5--x--x--|
E|--5--x--x--5--x--x--5--x--x--5--x--x---3--x--x--3--x--x--3--x--x--3--x--x--|

GUITAR (Lead):

e|--17-17-17-17-17-17-17-17-17-17-17-17-17p15----15-17--19-19-19-19-19-19-19-19-19-19-19-19-17p15----15-17--|
B|--------------------------------------------17--------------------------------------------------17--------|
G|----------------------------------------------------------------------------------------------------------|
D|----------------------------------------------------------------------------------------------------------|
A|----------------------------------------------------------------------------------------------------------|
E|----------------------------------------------------------------------------------------------------------|

GUITAR (Bass):

G|---------------------------------------------------|
D|---------------------------------------------------|
A|---------------------------------------------------|
E|--5--5--5--5--5--5--5--5---3--3--3--3--3--3--3--3--|

GUITAR (Rhythm):

e|---------------------------------------------------------------------|
B|---------------------------------------------------------------------|
G|---------------------------------------------------------------------|
D|--3--x--x--3--x--x--3--x--x--3--x--x---5--x--x--5--x--x--5--5--5--5--|
A|--3--x--x--3--x--x--3--x--x--3--x--x---5--x--x--5--x--x--5--5--5--5--|
E|--1--x--x--1--x--x--1--x--x--1--x--x---3--x--x--3--x--x--3--3--3--3--|

GUITAR (Lead):

e|--20-20-20-20-20-20-20p19p17-20-20-20p19p17-20-20-20p19p17--22-b---22--|
B|-----------------------------------------------------------------------|
G|-----------------------------------------------------------------------|
D|-----------------------------------------------------------------------|
A|-----------------------------------------------------------------------|
E|-----------------------------------------------------------------------|

GUITAR (Bass):

G|---------------------------------------------------|
D|---------------------------------------------------|
A|---------------------------------------------------|
E|--1--1--1--1--1--1--1--1---3--3--3--3--3--3--3--3--|


Pre-Chorus/Pre-Estribillo:

GUITAR (Rhythm):

e|-----------------------------------------------------------------------------------------------|
B|-----------------------------------------------------------------------------------------------|
G|-----------------------------------------------------------------------------------------------|
D|--3--3----3--3----3---5--5----5--5----5---3---3---3--3---5---5---5--5---7---7---7--7---9---10--|
A|--3--3----3--3----3---5--5----5--5----5---3---3---3--3---5---5---5--5---7---7---7--7---9---10--|
E|--1--1----1--1----1---3--3----3--3----3---1---1---1--1---3---3---3--3---5---5---5--5---7---8---|

GUITAR (Vocals):

e|--------------------------------------------------------------------------------------------|
B|---------------------------5------------------------------------------------------5------5--|
G|------4---5---7--------4-------7----5-p-4--5-p-4--5---/-7--7----5-p-4--5-p-4--5------7------|
D|--7----------------7------------------------------------------------------------------------|
A|--------------------------------------------------------------------------------------------|
E|--------------------------------------------------------------------------------------------|

GUITAR (Bass):

G|-----------------------------------------------------------------------------------------------|
D|-----------------------------------------------------------------------------------------------|
A|-----------------------------------------------------------------------------------------------|
E|--1--1----1--1----1---3--3----3--3----3---1---1---1--1---3---3---3--3---5---5---5--5---7---8---|


Last Chorus/Ultimo Estribillo:

GUITAR (Rhythm):

e|-----------------------------------------------------------------------------------|
B|-----------------------------------------------------------------------------------|
G|-----------------------------------------------------------------------------------|
D|--10--10--10--10--10--10---8--8--8--8--8--8---6--6--6--6--6--6---8--8--8--8--8--8--|
A|--10--10--10--10--10--10---8--8--8--8--8--8---6--6--6--6--6--6---8--8--8--8--8--8--|
E|--8---8---8---8---8---8----6--6--6--6--6--6---4--4--4--4--4--4---6--6--6--6--6--6--|

GUITAR (Vocals):

e|-------------------------------------------------------|
B|------------------------------------------------7------|
G|--8--8--8--8--8---7----------8--8--8--8--8---9------9--|
D|---------------------9---7-----------------------------|
A|-------------------------------------------------------|
E|-------------------------------------------------------|

GUITAR (Bass):

G|-----------------------------------------------------------------------------------------------------|
D|-----------------------------------------------------------------------------------------------------|
A|-----------------------------------------------------------------------------------------------------|
E|--8--8--8--8--8--8--8--8---6--6--6--6--6--6--6--6---4--4--4--4--4--4--4--4---6--6--6--6--6--6--6--6--|

GUITAR (Rhythm):

e|-----------------------------------------------------------------------------------|
B|-----------------------------------------------------------------------------------|
G|-----------------------------------------------------------------------------------|
D|--10--10--10--10--10--10---8--8--8--8--8--8---6--6--6--6--6--6---8--8--8--8--8--8--|
A|--10--10--10--10--10--10---8--8--8--8--8--8---6--6--6--6--6--6---8--8--8--8--8--8--|
E|--8---8---8---8---8---8----6--6--6--6--6--6---4--4--4--4--4--4---6--6--6--6--6--6--|

GUITAR (Vocals):

e|------------------------------------------|
B|-----------------9---8--------------------|
G|--8--8--8--8--8----------10---8----8--10--|
D|------------------------------------------|
A|------------------------------------------|
E|------------------------------------------|

GUITAR (Bass):

G|-----------------------------------------------------------------------------------------------------|
D|-----------------------------------------------------------------------------------------------------|
A|-----------------------------------------------------------------------------------------------------|
E|--8--8--8--8--8--8--8--8---6--6--6--6--6--6--6--6---4--4--4--4--4--4--4--4---6--6--6--6--6--6--6--6--|

GUITAR (Rhythm):

e|-----------------------------------------------------------------------------------|
B|-----------------------------------------------------------------------------------|
G|-----------------------------------------------------------------------------------|
D|--10--10--10--10--10--10---8--8--8--8--8--8---6--6--6--6--6--6---8--8--8--8--8--8--|
A|--10--10--10--10--10--10---8--8--8--8--8--8---6--6--6--6--6--6---8--8--8--8--8--8--|
E|--8---8---8---8---8---8----6--6--6--6--6--6---4--4--4--4--4--4---6--6--6--6--6--6--|

GUITAR (Vocals):

e|-------------------------------------------------------|
B|------------------------------------------------7------|
G|--8--8--8--8--8---7----------8--8--8--8--8---9------9--|
D|---------------------9---7-----------------------------|
A|-------------------------------------------------------|
E|-------------------------------------------------------|

GUITAR (Bass):

G|-----------------------------------------------------------------------------------------------------|
D|-----------------------------------------------------------------------------------------------------|
A|-----------------------------------------------------------------------------------------------------|
E|--8--8--8--8--8--8--8--8---6--6--6--6--6--6--6--6---4--4--4--4--4--4--4--4---6--6--6--6--6--6--6--6--|

GUITAR (Rhythm):

e|-----------------------------------------------------------------------------------|
B|-----------------------------------------------------------------------------------|
G|-----------------------------------------------------------------------------------|
D|--10--10--10--10--10--10---8--8--8--8--8--8---6--6--6--6--6--6---8--8--8--8--8--8--|
A|--10--10--10--10--10--10---8--8--8--8--8--8---6--6--6--6--6--6---8--8--8--8--8--8--|
E|--8---8---8---8---8---8----6--6--6--6--6--6---4--4--4--4--4--4---6--6--6--6--6--6--|

GUITAR (Vocals):

e|------------------------------------------|
B|-----------------9---8--------------------|
G|--8--8--8--8--8----------10---8----8--10--|
D|------------------------------------------|
A|------------------------------------------|
E|------------------------------------------|

GUITAR (Bass):

G|-----------------------------------------------------------------------------------------------------|
D|-----------------------------------------------------------------------------------------------------|
A|-----------------------------------------------------------------------------------------------------|
E|--8--8--8--8--8--8--8--8---6--6--6--6--6--6--6--6---4--4--4--4--4--4--4--4---6--6--6--6--6--6--6--6--|

GUITAR (Rhythm):

e|---------------------------------------------------------------------------|
B|---------------------------------------------------------------------------|
G|---------------------------------------------------------------------------|
D|--6--x--x--6--x--x--6--x--x--6--x--x---8--x--x--8--x--x--8--x--x--8--x--x--|
A|--6--x--x--6--x--x--6--x--x--6--x--x---8--x--x--8--x--x--8--x--x--8--x--x--|
E|--4--x--x--4--x--x--4--x--x--4--x--x---6--x--x--6--x--x--6--x--x--6--x--x--|

GUITAR (Vocals):

e|---------------------------------------------------|
B|---------8----------------------8------------------|
G|--8--10-----10---8------8---10-----10--------------|
D|--------------------10------------------10--8--10--|
A|---------------------------------------------------|
E|---------------------------------------------------|

GUITAR (Bass):

G|---------------------------------------------------|
D|---------------------------------------------------|
A|---------------------------------------------------|
E|--4--4--4--4--4--4--4--4---6--6--6--6--6--6--6--6--|

GUITAR (Rhythm):

e|---------------------------------------------------------|
B|---------------------------------------------------------|
G|---------------------------------------------------------|
D|--10---10--10--10--10--10--10---10--10--10---10--10--10--|
A|--10---10--10--10--10--10--10---10--10--10---10--10--10--|
E|--8----8---8---8---8---8---8----8---8---8----8---8---8---|

GUITAR (Bass):

G|---------------------------------------------------------|
D|---------------------------------------------------------|
A|---------------------------------------------------------|
E|--8----8---8---8---8---8---8----8---8---8----8---8---8---|

GUITAR (Rhythm):

e|--------------------------------------------------------------------------------|
B|--------------------------------------------------------------------------------|
G|--------------------------------------------------------------------------------|
D|--6--x--x--6--x--x--6--x--x--6--x--x---8--x--x--x--x--8--x--x--8--x--x--8---10--|
A|--6--x--x--6--x--x--6--x--x--6--x--x---8--x--x--x--x--8--x--x--8--x--x--8---10--|
E|--4--x--x--4--x--x--4--x--x--4--x--x---6--x--x--x--x--6--x--x--6--x--x--6---8---|

GUITAR (Vocals):

e|-----------------------------------------------------|
B|---------8----------------------8-------11--11-/-13--|
G|--8--10-----10---8------8---10-----10----------------|
D|--------------------10-------------------------------|
A|-----------------------------------------------------|
E|-----------------------------------------------------|

GUITAR (Bass):

G|-----------------------------------------------|
D|-----------------------------------------------|
A|-----------------------------------------------|
E|--4--4--4--4--4--4--4--4---6--6--6--6---6---8--|

 


Outro:

GUITAR (Rhythm):

e|-----|---------------------------------------------|
B|-----|---------------------------------------------|
G|--5--|--5--5--5--5--5--5--5---5--5--5--5--5--5-----|
D|--5--|--5--5--5--5--5--5--5---5--5--5--5--5--5--6--|
A|--3--|--3--3--3--3--3--3--3---3--3--3--3--3--3--6--|
E|-----|------------------------------------------4--|

GUITAR (Lead):

e|-------------------------|
B|--8-------------11-/-13--|
G|--10-b-------------------|
D|-------------------------|
A|-------------------------|
E|-------------------------|

GUITAR (Riff):

e|------|---------------------------------------------------|
B|------|---------------------------------------------------|
G|------|------8------10-p-8-----------8------10-/-12-------|
D|--10--|--10-----10-----------10--10-----10------------10--|
A|------|---------------------------------------------------|
E|------|---------------------------------------------------|

GUITAR (Bass):

G|-----|---------------------------------------------|
D|-----|---------------------------------------------|
A|--3--|--3--3--3--3--3--3--3---3--3--3--3--3--3-----|
E|-----|------------------------------------------4--|

GUITAR (Rhythm):

e|---------------------------------------------|
B|---------------------------------------------|
G|---------------------------------------------|
D|--6--6--6--6--6--6--6---6--6--6--6--6--6--3--|
A|--6--6--6--6--6--6--6---6--6--6--6--6--6--3--|
E|--4--4--4--4--4--4--4---4--4--4--4--4--4--1--|

GUITAR (Lead):

e|----------------11-p-10---------------|
B|--8----------------------11--11-/-13--|
G|--10-b--------------------------------|
D|--------------------------------------|
A|--------------------------------------|
E|--------------------------------------|

GUITAR (Riff):

e|--------------------------------------------------------|
B|--------------------------------------------------------|
G|------8------10-p-8-----------8------10-/-12---10-h-12--|
D|--10-----10-----------10--10-----10---------------------|
A|--------------------------------------------------------|
E|--------------------------------------------------------|

GUITAR (Bass):

G|---------------------------------------------|
D|---------------------------------------------|
A|---------------------------------------------|
E|--4--4--4--4--4--4--4---4--4--4--4--4--4--1--|


GUITAR (Rhythm):

e|---------------------------------------------------------------------------------------------|
B|---------------------------------------------------------------------------------------------|
G|---------------------------------------------------------------------------------------------|
D|--3--3--3--3--3--3--3---3--3--3--3--3--3--3---6--5---6--5---6--5----------------3---1--------|
A|--3--3--3--3--3--3--3---3--3--3--3--3--3--3---6--5---6--5---6--5------3-p-1------------1--3--|
E|--1--1--1--1--1--1--1---1--1--1--1--1--1--1---4--3---4--3---4--3-------------3---------------|

GUITAR (Lead):

e|----------13---16--15---16--15---16--15-------------------13---11----------|
B|--13--16-------------------------------------13-p-11---------------11--13--|
G|------------------------------------------------------12-------------------|
D|---------------------------------------------------------------------------|
A|---------------------------------------------------------------------------|
E|---------------------------------------------------------------------------|

GUITAR (Riff):

e|--------------------------------------------------------------------------------------------------|
B|--9--9--9--8--8--8-----------------------------9--8---9--8---9--8---------------------------------|
G|--------------------10--10--10--8--8--8--10----------------------------------------10---8---------|
D|-----------------------------------------------------------------------10-p-8--------------8--10--|
A|-------------------------------------------------------------------------------10-----------------|
E|--------------------------------------------------------------------------------------------------|

GUITAR (Bass):

G|---------------------------------------------------------------------------------------------|
D|--------------------------------------------------------------------------------3---1--------|
A|----------------------------------------------------------------------3-p-1------------1--3--|
E|--1--1--1--1--1--1--1---1--1--1--1--1--1--1---4--3---4--3---4--3-------------3---------------|

©2015 by Fefe - Tron544

Sigueme en:

  • YouTube - White Circle
  • Facebook - White Circle
  • Instagram - White Circle
  • Twitter - White Circle
This site was designed with the
.com
website builder. Create your website today.
Start Now