U&I

K-ON!!

TABS ~ By Fefe (Tron544)

 

Intro:

 

GUITAR 1:

 

e|-------------------------|

B|-------------------------|

G|-----------------7----9--|

D|--7----6----4----7----9--|

A|--7----6----4----5----7--|

E|--5----4----2------------|

 

GUITAR 2:

 

e|-------------12------------------------|

B|--10--9--10------9---10--9--10------9--|

G|--------------------------------11-----|

D|---------------------------------------|

A|---------------------------------------|

E|---------------------------------------|

GUITAR 1:

 

e|-------------------------|

B|-------------------------|

G|-----------------7----9--|

D|--7----6----4----7----9--|

A|--7----6----4----5----7--|

E|--5----4----2------------|

 

GUITAR 2:

 

e|-------------12---------------------------|

B|--10--9--10------9--10---9--10------9--10-|

G|--------------------------------11--------|

D|------------------------------------------|

A|------------------------------------------|

E|------------------------------------------|

 

GUITAR 1:

 

e|----------------------------------------------------|

B|----------------------------------------------------|

G|---------------------7---6--------------------------|

D|--7--7--7--7--7--7---7---6---7--7--7----7--7--7--7--|

A|--7--7--7--7--7--7---5---4---7--7--7----7--7--7--7--|

E|--5--5--5--5--5--5-----------5--5--5----5--5--5--5--|

 

 

Verse/Estrofa:

 

GUITAR 1:

 

e|----------------|----------------|

B|----------------|----------------|

G|---------7---9--|---------7---9--|

D|--7------7---9--|--7------7---9--|

A|--7------5---7--|--7------5---7--|

E|--5-------------|--5-------------|

 

GUITAR 2:

 

e|-----------------------------------------------------|---------------------------------|

B|-----------------------------------------------------|---------------------------------|

G|--9--9--9--11--9--------------9--9--9----------------|--9--9--9--11--9--------------9--|

D|------------------12--11--12-----------12--11--9--9--|------------------12--11--12-----|

A|-----------------------------------------------------|---------------------------------|

E|-----------------------------------------------------|---------------------------------|

 

GUITAR 1:

 

e|----------------|----------------|

B|----------------|----------------|

G|---------7---9--|--7------9------|

D|--7------7---9--|--7------9---7--|

A|--7------5---7--|--5------7---7--|

E|--5-------------|-------------5--|

 

GUITAR 2:

 

e|-----------------------------------------------------|-------------------------|

B|-----------------------------------------------------|-------------------------|

G|--9--9--9--11--9--------------9--9--9----------------|-------------------------|

D|------------------12--11--12-----------12--11--9--9--|------11--9--------------|

A|-----------------------------------------------------|--12---------12--12--12--|

E|-----------------------------------------------------|-------------------------|

 

 

Pre-Chorus/Pre-Estribillo:

 

GUITAR 1:

 

e|--------------------------------|--------|

B|--------------------------------|--------|

G|--7------6-------4---6----------|-4---6--|

D|--7------6---4---4---6---4---7--|-4---6--|

A|--5------4---4---2---4---4---7--|-2---4--|

E|-------------2-----------2---5--|--------|

 

GUITAR 2:

 

e|-------------------------------------------|--------------------------------------|

B|-------------------------------------------|--------------------------------------|

G|------11--11--11--11--13--11--9--9------9--|--9-----------------------------------|

D|--11--------------------------------11-----|-----12--11--9--12--11--9------9--11--|

A|-------------------------------------------|---------------------------12---------|

E|-------------------------------------------|--------------------------------------|

 

GUITAR 1:

 

e|--------|----------------------------|

B|--------|----------------------------|

G|--4--6--|--7------6-------4---7---9--|

D|--4--6--|--7------6---4---4---7---9--|

A|--2--4--|--5------4---4---2---5---7--|

E|--------|-------------2--------------|

 

GUITAR 2:

 

e|-------------------------------------------|----------------------------------------|

B|-------------------------------------------|----------------------------------------|

G|------11--11--11--11--13--11--9--9------9--|--9--------------9--11--14--14--16--16--|

D|--11--------------------------------11-----|-----12--11--12-------------------------|

A|-------------------------------------------|----------------------------------------|

E|-------------------------------------------|----------------------------------------|

U & I - Tron544
00:00 / 00:00
DONATE%20BUTTON%20(EN)_edited.png

Chorus/Estribillo:

 

GUITAR 1:

 

e|------------------------------|

B|------------------------------|

G|---------------------------6--|

D|--7------6------4------2---6--|

A|--7------6------4------2---4--|

E|--5------4------2------0------|

 

GUITAR 2:

 

e|----------------------------------------------|----------------------------------------------|

B|----------------------------------12----------|----------------------------------12--14--14--|

G|------14--14------14--14------14------14--14--|------14--14------14--14------14--------------|

D|--14----------14----------14------------------|--14----------14----------14------------------|

A|----------------------------------------------|----------------------------------------------|

E|----------------------------------------------|----------------------------------------------|

 

GUITAR 1:

 

e|----------------------------|

B|----------------------------|

G|--7------6-------4---7---9--|

D|--7------6---4---4---7---9--|

A|--5------4---4---2---5---7--|

E|-------------2--------------|

 

GUITAR 2:

 

e|----------------------|----------------------|--------------------------------------------------|

B|----------------------|----------------------|----------------------------------12--------------|

G|--14--14--13--11--14--|--11--14--13--11--14--|--11--14--13--11------11--13--14------14--13--13--|

D|----------------------|----------------------|------------------14------------------------------|

A|----------------------|----------------------|--------------------------------------------------|

E|----------------------|----------------------|--------------------------------------------------|

 

GUITAR 1:

 

e|---------------------------------|

B|---------------------------------|

G|------------5--6--------------6--|

D|--7------6--5--6---4------2---6--|

A|--7------6--3--4---4------2---4--|

E|--5------4---------2------0------|

 

GUITAR 2:

 

e|----------------------------------------------|----------------------------------------------|

B|----------------------------------12----------|----------------------------------12--14--14--|

G|------14--14------14--14------14------14--14--|------14--14------14--14------14--------------|

D|--14----------14----------14------------------|--14----------14----------14------------------|

A|----------------------------------------------|----------------------------------------------|

E|----------------------------------------------|----------------------------------------------|

 

GUITAR 1:

 

e|-------------------------------|--------------|

B|-------------------------------|--------------|

G|--7------6-------4---7--9------|--------------|

D|--7------6---4---4---7--9---7--|--7--7--7--7--|

A|--5------4---4---2---5--7---7--|--7--7--7--7--|

E|-------------2--------------5--|--5--5--5--5--|

 

GUITAR 2:

 

e|----------------------|----------------------|--------------------------|

B|----------------------|----------------------|----------12--------------|

G|--14--14--13--11--14--|--11--14--13--11--14--|--14--14------14--13--14--|

D|----------------------|----------------------|--------------------------|

A|----------------------|----------------------|--------------------------|

E|----------------------|----------------------|--------------------------|

 

 

Outro:

 

GUITAR 1:

 

  /~REPEAT~x4~/~REPITE~x4~\

e|-------------------------|----------------------------------------------------|

B|-------------------------|----------------------------------------------------|

G|-----------------7----9--|---------------------7---6--------------------------|

D|--7----6----4----7----9--|--7--7--7--7--7--7---7---6---7--7--7----7--7--7--7--|

A|--7----6----4----5----7--|--7--7--7--7--7--7---5---4---7--7--7----7--7--7--7--|

E|--5----4----2------------|--5--5--5--5--5--5-----------5--5--5----5--5--5--5--|

 

GUITAR 2:

 

  /~~~~~~~~REPEAT~x3~/~REPITE~x3~~~~~~~~~\

e|-------------12-------------------------|-------------12-----------------------------|

B|--10--9--10------9---10---9--10------9--|--10--9--10------9---10---9--10------9--10--|

G|---------------------------------11-----|---------------------------------11---------|

D|----------------------------------------|--------------------------------------------|

A|----------------------------------------|--------------------------------------------|

E|----------------------------------------|--------------------------------------------|

©2015 by Fefe - Tron544

Sigueme en:

  • YouTube - White Circle
  • Facebook - White Circle
  • Instagram - White Circle
  • Twitter - White Circle
This site was designed with the
.com
website builder. Create your website today.
Start Now