TRIP -INNOCENT OF D-

HIGHSCHOOL DxD

TABS ~ By Fefe (Tron544)

 

Intro:

 

  /~~~~~~PALM~MUTE~~~~~~\

e|-----------------------|

B|-----------------------|

G|-----------------------|

D|-----------------------|

A|-----------------------|

E|--4--3--1--3--1--2--0--|

 

 

e|-----------------------11----------------------------|

B|--11-b--9--8--9--8--9--------11-b--9--8--9--8--9-----|

G|--------------------------------------------------8--|

D|-----------------------------------------------------|

A|-----------------------------------------------------|

E|-----------------------------------------------------|

 

e|-----------------------11----8------8-----------------------|

B|--11-b--9--8--9--8--9-----------11-----9--11-b--9--8--9-----|

G|---------------------------------------------------------8--|

D|------------------------------------------------------------|

A|------------------------------------------------------------|

E|------------------------------------------------------------|

 

 

Verse/Estrofa:

 

GUITAR 1:

 

e|------------------------------------------------------------|

B|------------------------------------------------------------|

G|--------5--------------5--------------6--------------8------|

D|-----3------3-------5------5-------6------6-------6------6--|

A|--3--------------3--------------4--------------6------------|

E|------------------------------------------------------------|

 

GUITAR 2:

 

e|------------------------------------------------------------------------------|

B|----------------------11--13-------------------------11-----------------------|

G|--13--12--13--12--13--------------------13---13--13------13-------------------|

D|------------------------------13--13-------------------------13--11---10--10--|

A|------------------------------------------------------------------------------|

E|------------------------------------------------------------------------------|

 

GUITAR 1:

 

e|------------------------------------------|

B|--9----6-----------9----6-----------------|

G|------------5----------------5--6--5------|

D|---------------------------------------6--|

A|------------------------------------------|

E|------------------------------------------|

 

GUITAR 2:

 

e|----------------------------------------------------------------------|

B|----------------------------------------------------------11----------|

G|--10---10--12--13--12------13-----------------13--12--13----------13--|

D|-----------------------13-------13--13----13------------------13------|

A|----------------------------------------------------------------------|

E|----------------------------------------------------------------------|

 

 

Pre-Chorus/Pre-Estribillo:

 

GUITAR 1:

 

e|------------------------|

B|------------------------|

G|--5------5---6---8------|

D|--5------5---6---8---6--|

A|--3------3---4---6---6--|

E|---------------------4--|

 

GUITAR 2:

 

e|--------------------------------------------------------------------|

B|------------------------------13--11--------------------------------|

G|--12--12--12--12--10--9---------------13----13--13--12--10--12--13--|

D|--------------------------10----------------------------------------|

A|--------------------------------------------------------------------|

E|--------------------------------------------------------------------|

 

GUITAR 1:

 

e|---------------------------------------------------------------------------------------------------------|

B|---------------------------------------------------------------------------------------------------------|

G|--6--x--x--x---x--x--x--x---8--x--x--x---x--x--x--x------------------------------------------------------|

D|--6--x--x--x---x--x--x--x---8--x--x--x---x--x--x--x---6--x--x--x---x--x--x--x---8--x--x--x---x--x--x--x--|

A|--4--x--x--x---x--x--x--x---6--x--x--x---x--x--x--x---6--x--x--x---x--x--x--x---8--x--x--x---x--x--x--x--|

E|------------------------------------------------------4--x--x--x---x--x--x--x---6--x--x--x---x--x--x--x--|

 

GUITAR 2:

 

e|----------------------------------------------------------|

B|------------------------------------------------------11--|

G|----------10--------10--12----13--13--13--13--12--13------|

D|--11--13--------13----------------------------------------|

A|----------------------------------------------------------|

E|----------------------------------------------------------|

Trip -Innocent of D- - Tron544
00:00 / 00:00
DONATE%20BUTTON%20(EN)_edited.png

Chorus/Estribillo:

 

GUITAR 1:

 

e|--------------------------------|

B|--------------------------------|

G|--9--7--5------7------5------7--|

D|--------5------7------5------7--|

A|--7--5--3------5------3------5--|

E|--------------------------------|

 

GUITAR 2:

 

e|------------------------------------------------------------------------------------|

B|------13--13--13--13--13--13--12----------------13--13--13--13--13--13--12----------|

G|----------------------------------12--12------------------------------------12--12--|

D|--14----------------------------------------14--------------------------------------|

A|------------------------------------------------------------------------------------|

E|------------------------------------------------------------------------------------|

 

GUITAR 1:

 

e|---------------------------------------------------------------------------------------------------------|

B|---------------------------------------------------------------------------------------------------------|

G|---------------------------------------------------------------------------------------------------------|

D|--3--x--x--x---x--x--x--x---5--x--x--x---x--x--x--x---7--x--x--x---x--x--x--x---7--x--x--x---x--x--x--x--|

A|--3--x--x--x---x--x--x--x---5--x--x--x---x--x--x--x---7--x--x--x---x--x--x--x---7--x--x--x---x--x--x--x--|

E|--1--x--x--x---x--x--x--x---3--x--x--x---x--x--x--x---5--x--x--x---x--x--x--x---5--x--x--x---x--x--x--x--|

 

GUITAR 2:

 

e|------------------------------------------------|

B|--13----10--12--13--12--10------12--12--13--10--|

G|----------------------------12------------------|

D|------------------------------------------------|

A|------------------------------------------------|

E|------------------------------------------------|

 

GUITAR 1:

 

e|--------------------------------|

B|--------------------------------|

G|--9--7--5------7------5------7--|

D|--------5------7------5------7--|

A|--7--5--3------5------3------5--|

E|--------------------------------|

 

GUITAR 2:

 

e|------------------------------------------------------------------------------------|

B|------13--13--13--13--13--13--12----------------13--13--13--13--13--13--12----------|

G|----------------------------------12--12------------------------------------12--12--|

D|--14----------------------------------------14--------------------------------------|

A|------------------------------------------------------------------------------------|

E|------------------------------------------------------------------------------------|

 

GUITAR 1:

 

e|---------------------------------------------------------------------------------------------------------|

B|---------------------------------------------------------------------------------------------------------|

G|---------------------------------------------------------------------------------------------------------|

D|--3--x--x--x---x--x--x--x---5--x--x--x---x--x--x--x---7--x--x--x---x--x--x--x---7--x--x--x---x--x--x--x--|

A|--3--x--x--x---x--x--x--x---5--x--x--x---x--x--x--x---7--x--x--x---x--x--x--x---7--x--x--x---x--x--x--x--|

E|--1--x--x--x---x--x--x--x---3--x--x--x---x--x--x--x---5--x--x--x---x--x--x--x---5--x--x--x---x--x--x--x--|

 

GUITAR 2:

 

e|-----------------------------------------------------|

B|--10----10------10--12---------------12--10--12--13--|

G|------------12------------12----9--------------------|

D|-----------------------------------------------------|

A|-----------------------------------------------------|

E|-----------------------------------------------------|

 

GUITAR 1:

 

e|-----------|

B|-----------|

G|-----------|

D|--7--5--3--|

A|--7--5--3--|

E|--5--3--1--|

 

GUITAR 2:

 

e|--------------|

B|--13--12--10--|

G|--------------|

D|--------------|

A|--------------|

E|--------------|

 

GUITAR 1:

 

e|--------------------------|

B|--------------------------|

G|--------------------------|

D|--3------5------7------7--|

A|--3------5------7------7--|

E|--1------3------5------5--|

 

GUITAR 2:

 

e|------------------------------------------|

B|--10--10--10--------------12--12--13--10--|

G|--------------12--10--9-------------------|

D|------------------------------------------|

A|------------------------------------------|

E|------------------------------------------|

 

 

Outro:

 

e|-----------------------11----------------------------|

B|--11-b--9--8--9--8--9--------11-b--9--8--9--8--9-----|

G|--------------------------------------------------8--|

D|-----------------------------------------------------|

A|-----------------------------------------------------|

E|-----------------------------------------------------|

 

e|-----------------------11----8------8-----------------------|

B|--11-b--9--8--9--8--9-----------11-----9--11-b--9--8--9-----|

G|---------------------------------------------------------8--|

D|------------------------------------------------------------|

A|------------------------------------------------------------|

E|------------------------------------------------------------|

©2015 by Fefe - Tron544

Sigueme en:

  • YouTube - White Circle
  • Facebook - White Circle
  • Instagram - White Circle
  • Twitter - White Circle
This site was designed with the
.com
website builder. Create your website today.
Start Now