TOUMEI DATTA SEKAI

NARUTO SHIPPUDEN

TABS ~ By Fefe (Tron544)

 

Intro: x2

 

GUITAR 1:

 

e|--1--1--#--#--#--#--#--1--1--1--1--1--3--3--#--#--#--#--#--3--3--3--3--3-|

B|--1--1--#--#--#--#--#--1--1--1--1--1--3--3--#--#--#--#--#--3--3--3--3--3-|

G|--2--2--#--#--#--#--#--2--2--2--2--2--4--4--#--#--#--#--#--4--4--4--4--4-|

D|--3--3--#--#--#--#--#--3--3--3--3--3--5--5--#--#--#--#--#--5--5--5--5--5-|

A|--3--3--#--#--#--#--#--3--3--3--3--3--5--5--#--#--#--#--#--5--5--5--5--5-|

E|--1--1--#--#--#--#--#--1--1--1--1--1--3--3--#--#--#--#--#--3--3--3--3--3-|

 

GUITAR 2:

 

e|--------------------------------------------------------|

B|--------------------------------------------------------|

G|--9------12-/-9----9------------------------------------|

D|-----12---------------12--10--9--9--9--9--9--10--9------|

A|----------------------------------------------------12--|

E|--------------------------------------------------------|

 

GUITAR 3:

 

e|--1--1--#--#--#--#--#--1---3--3--#--#--#--#--#--3--|

B|--1--1--#--#--#--#--#--1---3--3--#--#--#--#--#--3--|

G|--2--2--#--#--#--#--#--2---4--4--#--#--#--#--#--4--|

D|--3--3--#--#--#--#--#--3---5--5--#--#--#--#--#--5--|

A|--3--3--#--#--#--#--#--3---5--5--#--#--#--#--#--5--|

E|--1--1--#--#--#--#--#--1---3--3--#--#--#--#--#--3--|

 

 

Verse/Estrofa:

 

GUITAR 1:

 

e|--3--3--3--3--3--3--3--3--3--3--3---0--0--0--0--0--0--0--0--0--0--0--|

B|--1--1--1--1--1--1--1--1--1--1--1---1--1--1--1--1--1--1--1--1--1--1--|

G|--2--2--2--2--2--2--2--2--2--2--2---0--0--0--0--0--0--0--0--0--0--0--|

D|--3--3--3--3--3--3--3--3--3--3--3---2--2--2--2--2--2--2--2--2--2--2--|

A|------------------------------------3--3--3--3--3--3--3--3--3--3--3--|

E|---------------------------------------------------------------------|

 

GUITAR 2:

 

e|--------------------------------------------------------------|

B|--------------------------------------------------------------|

G|--9--9--9--9--9--9--9--9--9-----------------------------------|

D|-----------------------------10--10------------------10-/-12--|

A|-------------------------------------10--10--10--10-----------|

E|--------------------------------------------------------------|

 

GUITAR 1:

 

e|--3--3--3--3--3--3--3--3--3--3--3---0--0--0--0--0--0--0--0--0--0--0--|

B|--3--3--3--3--3--3--3--3--3--3--3---1--1--1--1--1--1--1--1--1--1--1--|

G|--0--0--0--0--0--0--0--0--0--0--0---2--2--2--2--2--2--2--2--2--2--2--|

D|--0--0--0--0--0--0--0--0--0--0--0---2--2--2--2--2--2--2--2--2--2--2--|

A|--2--2--2--2--2--2--2--2--2--2--2---0--0--0--0--0--0--0--0--0--0--0--|

E|---------------------------------------------------------------------|

 

GUITAR 2:

 

e|------------------------------------|

B|------------------------------------|

G|------------------10--9-------------|

D|--10--10--10--10---------9--10--10--|

A|------------------------------------|

E|------------------------------------|

 

GUITAR 1:

 

e|--3--3--3--3--3--3--3--3--3--3--3---0--0--0--0--0--0--0--0--0--0--0--|

B|--1--1--1--1--1--1--1--1--1--1--1---1--1--1--1--1--1--1--1--1--1--1--|

G|--2--2--2--2--2--2--2--2--2--2--2---0--0--0--0--0--0--0--0--0--0--0--|

D|--3--3--3--3--3--3--3--3--3--3--3---2--2--2--2--2--2--2--2--2--2--2--|

A|------------------------------------3--3--3--3--3--3--3--3--3--3--3--|

E|---------------------------------------------------------------------|

 

GUITAR 2:

 

e|--------------------------------------------------------------|

B|--------------------------------------------------------------|

G|--9--9--9--9--9--9--9--9--9-----------------------------------|

D|-----------------------------10--10------------------10-/-12--|

A|-------------------------------------10--10--10--10-----------|

E|--------------------------------------------------------------|

 

GUITAR 1:

 

e|--3--3--3--3--3--3--3--3--3--3--3---3--3--3--3--3--3--3--3--3--3--3--|

B|--3--3--3--3--3--3--3--3--3--3--3---1--1--1--1--1--1--1--1--1--1--1--|

G|--0--0--0--0--0--0--0--0--0--0--0---2--2--2--2--2--2--2--2--2--2--2--|

D|--0--0--0--0--0--0--0--0--0--0--0---3--3--3--3--3--3--3--3--3--3--3--|

A|--2--2--2--2--2--2--2--2--2--2--2------------------------------------|

E|---------------------------------------------------------------------|

 

GUITAR 2:

 

e|-------------------------------------------------------------|

B|-------------------------------------------------------------|

G|--------------------------10--10--9--9-----------------------|

D|--10--10--10--10--10--10-----------------9-------9-------10--|

A|---------------------------------------------12------12------|

E|-------------------------------------------------------------|

 

 

Pre-Chorus/Pre-Estribillo:

 

GUITAR 1:

 

e|--0--0--#--#--#--#--#--1--1--1--1--1---0--0--#--#--#--#--#--3--3--3--3--3--|

B|--1--1--#--#--#--#--#--1--1--1--1--1---1--1--#--#--#--#--#--3--3--3--3--3--|

G|--2--2--#--#--#--#--#--2--2--2--2--2---2--2--#--#--#--#--#--0--0--0--0--0--|

D|--2--2--#--#--#--#--#--3--3--3--3--3---2--2--#--#--#--#--#--0--0--0--0--0--|

A|--0--0--#--#--#--#--#--3--3--3--3--3---0--0--#--#--#--#--#--2--2--2--2--2--|

E|--------#--#--#--#--#--1--1--1--1--1---------#--#--#--#--#--3--3--3--3--3--|

 

GUITAR 2:

 

e|-------------------------------------------------------|

B|-------------------------------------------------------|

G|--9------12--9----9------------------------------------|

D|-----12--------------12--10--9--9--9--9--9--10--9------|

A|---------------------------------------------------12--|

E|-------------------------------------------------------|

 

GUITAR 3:

 

 

e|--0--0--#--#--#--#--#--1---0--0--#--#--#--#--#--3--|

B|--1--1--#--#--#--#--#--1---1--1--#--#--#--#--#--3--|

G|--2--2--#--#--#--#--#--2---2--2--#--#--#--#--#--0--|

D|--2--2--#--#--#--#--#--3---2--2--#--#--#--#--#--0--|

A|--0--0--#--#--#--#--#--3---0--0--#--#--#--#--#--2--|

E|--------#--#--#--#--#--1---------#--#--#--#--#--3--|

 

GUITAR 1:

 

e|--0--0--0--0--0---1--1--1--1--1---3--3--3--3--3---3--3--3--3--3--|--3--3--3--3--3---3--3--3--|

B|--1--1--1--1--1---3--3--3--3--3---3--3--3--3--3---3--3--3--3--3--|--3--3--3--3--3---3--3--3--|

G|--0--0--0--0--0---2--2--2--2--2---0--0--0--0--0---0--0--0--0--0--|--0--0--0--0--0---0--0--0--|

D|--2--2--2--2--2---0--0--0--0--0---0--0--0--0--0---0--0--0--0--0--|--0--0--0--0--0---0--0--0--|

A|--3--3--3--3--3-------------------2--2--2--2--2---2--2--2--2--2--|--2--2--2--2--2---2--2--2--|

E|----------------------------------3--3--3--3--3---1--1--1--1--1--|--0--0--0--0--0---3--3--3--|

 

GUITAR 2:

 

e|-----------------------------------------------------------------|-------------------------------|

B|-----------------------------------------------------------------|-------------------------------|

G|--9------12--9---------------------------------------------------|-------------------------------|

D|-----12----------9-h-10--10--10--10--10-p-9--9--9--9----------9--|------9--9--9--9--10--10-/-12--|

A|------------------------------------------------------12--12-----|--12---------------------------|

E|-----------------------------------------------------------------|-------------------------------|

 

GUITAR 3:

 

e|--0--0--#--#--#--#--#--1----------15--------------15------|---------15--------------15------|

B|--1--1--#--#--#--#--#--3--------------15--------------15--|-------------15--------------15--|

G|--0--0--#--#--#--#--#--2------12--------------12----------|-----12--------------12----------|

D|--2--2--#--#--#--#--#--0---0---------------0--------------|--0---------------0--------------|

A|--3--3--#--#--#--#--#-------------------------------------|---------------------------------|

E|--------#--#--#--#--#-------------------------------------|---------------------------------|

Toumei Datta Sekai - Tron544
00:00 / 00:00
DONATE%20BUTTON%20(EN)_edited.png

Chorus/Estribillo:

 

GUITAR 1:

 

e|--0--0--0--0--0--0--0--0--0--0--0---1--1--1--1--1--1--1--1--1--1--1--|

B|--1--1--1--1--1--1--1--1--1--1--1---1--1--1--1--1--1--1--1--1--1--1--|

G|--0--0--0--0--0--0--0--0--0--0--0---2--2--2--2--2--2--2--2--2--2--2--|

D|--2--2--2--2--2--2--2--2--2--2--2---3--3--3--3--3--3--3--3--3--3--3--|

A|--3--3--3--3--3--3--3--3--3--3--3---3--3--3--3--3--3--3--3--3--3--3--|

E|------------------------------------1--1--1--1--1--1--1--1--1--1--1--|

 

GUITAR 2:

 

e|----------------------------------------------------------------------|

B|----------------------------------------------------------------------|

G|----------10-/-12---10--9------------------10-/-12-------12-/-14--12--|

D|--10--12-------------------12--10--10--12------------10---------------|

A|----------------------------------------------------------------------|

E|----------------------------------------------------------------------|

 

GUITAR 3:

 

e|--0------0------1------1--|

B|--1------1------1------1--|

G|--0------0------2------2--|

D|--2------2------3------3--|

A|--3------3------3------3--|

E|----------------1------1--|

 

GUITAR 1:

 

e|--1--1--1--1--1-------------------3--3--3--3--3---0--0--0--0--0--|

B|--3--3--3--3--3---3--3--3--3--2---3--3--3--3--3---0--0--0--0--0--|

G|--2--2--2--2--2---2--2--2--2--3---0--0--0--0--0---1--1--1--1--1--|

D|--0--0--0--0--0---0--0--0--0--0---0--0--0--0--0---2--2--2--2--2--|

A|----------------------------------2--2--2--2--2---2--2--2--2--2--|

E|------------------2--2--2--2--2---3--3--3--3--3---0--0--0--0--0--|

 

GUITAR 2:

 

e|-----------------------------------------|

B|-----------------------------------------|

G|--12---9--10--9--10-/-12--9--------------|

D|-----------------------------12---10--9--|

A|-----------------------------------------|

E|-----------------------------------------|

 

GUITAR 3:

 

e|--------5------------5------------3------------0-----|

B|-----------5------------5------------3------------0--|

G|-----------------------------------------------------|

D|-----7------------7----------------------------------|

A|--5------------9---------------5------------2--------|

E|----------------------------3------------0-----------|

 

GUITAR 1:

 

e|--0--0--0--0--0---0--0--0--0--0---0--0--0--0--0------------------|

B|--1--1--1--1--1---1--1--1--1--1---1--1--1--1--1---3--3--3--3--3--|

G|--2--2--2--2--2---1--1--1--1--1---0--0--0--0--0---2--2--2--2--2--|

D|--2--2--2--2--2---2--2--2--2--2---2--2--2--2--2---0--0--0--0--0--|

A|--0--0--0--0--0---0--0--0--0--0---3--3--3--3--3------------------|

E|----------------------------------3--3--3--3--3---2--2--2--2--2--|

 

GUITAR 2:

 

e|----------------------------------------------------------------------|

B|----------------------------------------------------------------------|

G|----------10-/-12---10--9------------------10-/-12-------12-/-14--12--|

D|--10--12-------------------12--10--10--12------------10---------------|

A|----------------------------------------------------------------------|

E|----------------------------------------------------------------------|

 

GUITAR 3:

 

e|-----------------------------------------------2-----|

B|--------5------------5------------5---------------3--|

G|-----------5------------5------------5---------------|

D|--------------------------------------------0--------|

A|-----7------------7------------7---------------------|

E|--5------------4------------3------------2-----------|

 

GUITAR 1:

 

e|--1--1--0--0--0---1--1------------3--3--3--3--3---0--0--0--0--0--|

B|--3--3--1--1--1---1--1--3--3--3---3--3--3--3--3---0--0--0--0--0--|

G|--2--2--0--0--0---2--2--2--2--2---0--0--0--0--0---1--1--1--1--1--|

D|--0--0--2--2--2---3--3--0--0--0---0--0--0--0--0---2--2--2--2--2--|

A|--------3--3--3---3--3------------2--2--2--2--2---2--2--2--2--2--|

E|--------0--0--0---1--1--2--2--2---3--3--3--3--3---0--0--0--0--0--|

 

GUITAR 2:

 

e|-----------------------------------------------|

B|-----------------------------------------------|

G|--12---9--10--9--10-/-12--9-----------10-/-12--|

D|-----------------------------12---10-----------|

A|-----------------------------------------------|

E|-----------------------------------------------|

 

GUITAR 3:

 

e|--1--1---0--0---1--1----------3------0--|

B|--3--3---1--1---1--1---3--3---3------0--|

G|--2--2---0--0---2--2---2--2---0------1--|

D|--0--0---2--2---3--3---0--0---0------2--|

A|---------3--3---3--3----------2------2--|

E|---------0--0---1--1---2--2---3------0--|

 

 

Outro:

 

GUITAR 1:

 

e|--1--1--#--#--#--#--#--1--1--1--1--1---3--3--#--#--#--#--#--3--3--3--3--3--|

B|--1--1--#--#--#--#--#--1--1--1--1--1---3--3--#--#--#--#--#--3--3--3--3--3--|

G|--2--2--#--#--#--#--#--2--2--2--2--2---4--4--#--#--#--#--#--4--4--4--4--4--|

D|--3--3--#--#--#--#--#--3--3--3--3--3---5--5--#--#--#--#--#--5--5--5--5--5--|

A|--3--3--#--#--#--#--#--3--3--3--3--3---5--5--#--#--#--#--#--5--5--5--5--5--|

E|--1--1--#--#--#--#--#--1--1--1--1--1---3--3--#--#--#--#--#--3--3--3--3--3--|

 

GUITAR 2:

 

e|--------------------------------------------------------|

B|--------------------------------------------------------|

G|--9------12-/-9----9------------------------------------|

D|-----12---------------12--10--9--9--9--9--9--10--9------|

A|----------------------------------------------------12--|

E|--------------------------------------------------------|

 

GUITAR 3:

 

e|--1--1--#--#--#--#--#--1---3--3--#--#--#--#--#--3--|

B|--1--1--#--#--#--#--#--1---3--3--#--#--#--#--#--3--|

G|--2--2--#--#--#--#--#--2---4--4--#--#--#--#--#--4--|

D|--3--3--#--#--#--#--#--3---5--5--#--#--#--#--#--5--|

A|--3--3--#--#--#--#--#--3---5--5--#--#--#--#--#--5--|

E|--1--1--#--#--#--#--#--1---3--3--#--#--#--#--#--3--|

 

GUITAR 4:

 

e|-----------------------|

B|-----------------------|

G|------12--12-/-14--12--|

D|--10-------------------|

A|-----------------------|

E|-----------------------|

 

GUITAR 1:

 

e|--1--1--#--#--#--#--#--1--1--1--1--1---3--3--#--#--#--#--#--3--3--3--3--3--|

B|--1--1--#--#--#--#--#--1--1--1--1--1---3--3--#--#--#--#--#--3--3--3--3--3--|

G|--2--2--#--#--#--#--#--2--2--2--2--2---4--4--#--#--#--#--#--4--4--4--4--4--|

D|--3--3--#--#--#--#--#--3--3--3--3--3---5--5--#--#--#--#--#--5--5--5--5--5--|

A|--3--3--#--#--#--#--#--3--3--3--3--3---5--5--#--#--#--#--#--5--5--5--5--5--|

E|--1--1--#--#--#--#--#--1--1--1--1--1---3--3--#--#--#--#--#--3--3--3--3--3--|

 

GUITAR 2:

 

e|--------------------------------------------------------|

B|--------------------------------------------------------|

G|--9------12-/-9----9------------------------------------|

D|-----12---------------12--10--9--9--9--9--9--10--9------|

A|----------------------------------------------------12--|

E|--------------------------------------------------------|

 

GUITAR 3:

 

e|--1--1--#--#--#--#--#--1---3--3--#--#--#--#--#--3--|

B|--1--1--#--#--#--#--#--1---3--3--#--#--#--#--#--3--|

G|--2--2--#--#--#--#--#--2---4--4--#--#--#--#--#--4--|

D|--3--3--#--#--#--#--#--3---5--5--#--#--#--#--#--5--|

A|--3--3--#--#--#--#--#--3---5--5--#--#--#--#--#--5--|

E|--1--1--#--#--#--#--#--1---3--3--#--#--#--#--#--3--|

 

GUITAR 1:

 

e|--3--3--3--------3--------3--------3--3--3--3--------3--------3--------3--|

B|--1--1-----1--------1--------1-----1--1--1-----1--------1--------1-----1--|

G|--2--2--------2--------2--------2--2--2--2--------2--------2--------2--2--|

D|--3--3-----------------------------3--3--3-----------------------------3--|

A|--------------------------------------------------------------------------|

E|--------------------------------------------------------------------------|

©2015 by Fefe - Tron544

Sigueme en:

  • YouTube - White Circle
  • Facebook - White Circle
  • Instagram - White Circle
  • Twitter - White Circle
This site was designed with the
.com
website builder. Create your website today.
Start Now