TOUCH OFF

THE PROMISED NEVERLAND

TABS ~ By Fefe (Tron544)

 

Intro:

GUITAR (Lead):

e|--------------------------------------------------------------------|
B|--------------------------------------------------------------------|
G|--9-9-9-9----9-9--9--9--9-7-7-7-7--9-9-9-9----9-9--9--9--9-7-7-7-7--|
D|--------------------------------------------------------------------|
A|--7-7-7-7----7-7--7--7--7-7-7-7-7--7-7-7-7----7-7--7--7--7-7-7-7-7--|
E|--------------------------------------------------------------------|

GUITAR (Vocals):

e|----------------|----------------------------------------------------|
B|-------------7--|--7-8-8-8--8--8--7---10/12--10-8-10-8---8-----------|
G|----------9-----|--------------------------------------9----9-7-9----|
D|----------------|----------------------------------------------------|
A|----------------|----------------------------------------------------|
E|----------------|----------------------------------------------------|

GUITAR (Rhythm):

e|----------#-#-#-#--|--3-------5--5-----------------5----|
B|----------#-#-#-#--|--5-------7--7-----------------7----|
G|----------#-#-#-#--|--5-------7--7-----------------7----|
D|----------#-#-#-#--|--5-------7--7-----------------7----|
A|----------#-#-#-#--|--3-------5--5-----------------5----|
E|----------#-#-#-#--|------------------------------------|

GUITAR (Lead):

e|-----------------------------------|------------------------------------|
B|-----------------------------------|------------------------------------|
G|--9-9-9-9----9-9--9--9--9-#-#-#-#--|--5-------7--7-----------------7----|
D|--------------------------#-#-#-#--|--5-------7--7-----------------7----|
A|--7-7-7-7----7-7--7--7--7-#-#-#-#--|--3-------5--5-----------------5----|
E|-----------------------------------|------------------------------------|

BASS:

G|------------------|------------------------------------|
D|------------------|------------------------------------|
A|------------------|--3-------5--5-----------------5----|
E|------------------|------------------------------------|

GUITAR (Rhythm):

e|--7-7--5-5--3-3--3-3--3-3-3-3-3-3--5-5--7-7--7-7--7-7-7-7--|
B|--8-8--7-7--5-5--5-5--5-5-5-5-5-5--7-7--8-8--8-8--8-8-8-8--|
G|--9-9--7-7--5-5--5-5--5-5-5-5-5-5--7-7--9-9--9-9--9-9-9-9--|
D|--9-9--7-7--5-5--5-5--5-5-5-5-5-5--7-7--9-9--9-9--9-9-9-9--|
A|--7-7--5-5--3-3--3-3--3-3-3-3-3-3--5-5--7-7--7-7--7-7-7-7--|
E|-----------------------------------------------------------|

GUITAR (Lead):

e|--15b------------15-p-12----12---12/15-------------------------------|
B|-------------------------15-----------------------------------13/15--|
G|------------------------------------------14-p-12-14--12-h-14--------|
D|---------------------------------------------------------------------|
A|---------------------------------------------------------------------|
E|---------------------------------------------------------------------|

BASS:

G|-----------------------------------------------------------|
D|-----------------------------------------------------------|
A|--7-7--5-5--3-3--3-3--3-3-3-3-3-3--5-5--7-7--7-7--7-7-7-7--|
E|-----------------------------------------------------------|

GUITAR (Rhythm):

e|--7-7--5-5--3-3--3-3--3-3-3-3-3-3--5-5--7-7--7-7--7-7-7-7--|
B|--8-8--7-7--5-5--5-5--5-5-5-5-5-5--7-7--8-8--8-8--8-8-8-8--|
G|--9-9--7-7--5-5--5-5--5-5-5-5-5-5--7-7--9-9--9-9--9-9-9-9--|
D|--9-9--7-7--5-5--5-5--5-5-5-5-5-5--7-7--9-9--9-9--9-9-9-9--|
A|--7-7--5-5--3-3--3-3--3-3-3-3-3-3--5-5--7-7--7-7--7-7-7-7--|
E|-----------------------------------------------------------|

GUITAR (Lead):

e|-------------------------------------------------------------------------------|
B|--13-h-15-12------------------------12-13-12-------12--15--12-15/17---17--17---|
G|----------------14-p-12-------12-14------------14------------------------------|
D|------------------------14-12--------------------------------------------------|
A|-------------------------------------------------------------------------------|
E|-------------------------------------------------------------------------------|

BASS:

G|-----------------------------------------------------------|
D|-----------------------------------------------------------|
A|--7-7--5-5--3-3--3-3--3-3-3-3-3-3--5-5--7-7--7-7--7-7-7-7--|
E|-----------------------------------------------------------|

GUITAR (Rhythm):

e|--7-7-7-7-7--7-7-7-7-7--7-7-7-7--7-7-7-7-7--7-7-7-7-7---7---|
B|--8-8-8-8-8--8-8-8-8-8--8-8-8-8--8-8-8-8-8--8-8-8-8-8---8---|
G|--9-9-9-9-7--9-9-9-9-7--9-9-9-9--9-9-9-9-7--9-9-9-9-7---7---|
D|--9-9-9-9-9--9-9-9-9-9--9-9-9-9--9-9-9-9-9--9-9-9-9-9---9---|
A|--7-7-7-7-7--7-7-7-7-7--7-7-7-7--7-7-7-7-7--7-7-7-7-7---7---|
E|------------------------------------------------------------|

GUITAR (Lead):

e|------------------------------------------------------------------|
B|--10/12--------10/12--------------10/12--------10/12--------------|
G|---------9--9---------9--9--9-7----------9--9---------9--9--9-7---|
D|--7-/9---------7-/9---------------7-/9---------7-/9---------------|
A|---------7--7---------7--7--7-5----------7--7---------7--7--7-5---|
E|------------------------------------------------------------------|

BASS:

G|--------------------------------------|
D|--------------------------------------|
A|--7-------------------------------7---|
E|--------------------------------------|


Verse/Estrofa:

GUITAR (Vocals):

e|-----------|----------------------------------------------------------------------------------|
B|-----------|-----10/12-------------10/12---------------10/12----------------10/12---10-10-----|
G|--12-12-9--|-12----------12--9-12----------12-12-9-12----------12-12-9-12-9---------------12--|
D|-----------|----------------------------------------------------------------------------------|
A|-----------|----------------------------------------------------------------------------------|
E|-----------|----------------------------------------------------------------------------------|

GUITAR (Rhythm):

e|--7-7-7-7--7-7-7-7---7-7-7-7--7-7-7-7--7-7-7-7---7-7-7-7--|
B|--8-8-8-8--8-8-8-8---8-8-8-8--8-8-8-8--8-8-8-8---8-8-8-8--|
G|--9-9-9-9--9-9-9-7---9-9-9-7--9-9-9-9--9-9-9-7---9-9-9-7--|
D|--9-9-9-9--9-9-9-9---9-9-9-9--9-9-9-9--9-9-9-9---9-9-9-9--|
A|--7-7-7-7--7-7-7-7---7-7-7-7--7-7-7-7--7-7-7-7---7-7-7-7--|
E|----------------------------------------------------------|

GUITAR (Lead):

e|----------------------------------------------------------|
B|----------------------------------------------------------|
G|--9-9-9-9--9-9-9-7---9-9-9-7--9-9-9-9--9-9-9-7---9-9-9-7--|
D|----------------------------------------------------------|
A|--7-7-7-7--7-7-7-7---7-7-7-7--7-7-7-7--7-7-7-7---7-7-7-7--|
E|----------------------------------------------------------|

BASS:

G|-----------------------------------------------------------|
D|-----------------------------------------------------------|
A|--7-7-7-7--7-7-7-7---7-7-7-7--7-7-7-7--7-7-7-7---7-7-7-10--|
E|-----------------------------------------------------------|

GUITAR (Vocals):

e|-------------------------------------------------------------------------|
B|--10----10----10-10--12--------------------------------------------------|
G|-----12----12------------12-11h12---12\9------------12-12-12-12-12-12-9--|
D|-------------------------------------------------------------------------|
A|-------------------------------------------------------------------------|
E|-------------------------------------------------------------------------|

GUITAR (Rhythm):

e|---------------------------------------------5---5-5-5-5--|
B|--8-8-8-8--8-8-8-8---8-8-8-8--8-8-8-8--8-8-8-7---7-7-7-7--|
G|--9-9-9-9--9-9-9-9---9-9-9-9--9-9-9-9--9-9-9-7---7-7-7-7--|
D|--7-7-7-7--7-7-7-5---7-7-7-5--7-7-7-7--7-7-7-7---7-7-7-7--|
A|---------------------------------------------5---5-5-5-5--|
E|--8-8-8-8--8-8-8-8---8-8-8-8--8-8-8-8--8-8-8--------------|

GUITAR (Lead):

e|----------------------------------------------------------|
B|----------------------------------------------------------|
G|---------------------------------------------7---7-7-7-7--|
D|--7-7-7-7--7-7-7-5---7-7-7-5--7-7-7-7--7-7-7--------------|
A|--3-3-3-3--3-3-3-3---3-3-3-3--3-3-3-3--3-3-3-5---5-5-5-5--|
E|----------------------------------------------------------|

BASS:

G|----------------------------------------------------------|
D|----------------------------------------------------------|
A|--3-3-3-3--3-3-3-3---3-3-3-3--3-3-3-3--3-3-3-5---5-5-5-5--|
E|----------------------------------------------------------|

GUITAR (Vocals):

e|-----------------------------------------------------------------------------------------|
B|------10/12---------------10/12---10-10----10----10----10----10----10--10/12---10-10-----|
G|--12----------12-12-9-12----------------12----12----12----12----12-------------------12--|
D|-----------------------------------------------------------------------------------------|
A|-----------------------------------------------------------------------------------------|
E|-----------------------------------------------------------------------------------------|

GUITAR (Rhythm):

e|--7-7-7-7--7-7-7-7---7-7-7-7--7-7-7-7--7-7-7-7---7-7-7-7--|
B|--8-8-8-8--8-8-8-8---8-8-8-8--8-8-8-8--8-8-8-8---8-8-8-8--|
G|--9-9-9-9--9-9-9-7---9-9-9-7--9-9-9-9--9-9-9-7---9-9-9-7--|
D|--9-9-9-9--9-9-9-9---9-9-9-9--9-9-9-9--9-9-9-9---9-9-9-9--|
A|--7-7-7-7--7-7-7-7---7-7-7-7--7-7-7-7--7-7-7-7---7-7-7-7--|
E|----------------------------------------------------------|

GUITAR (Lead):

e|----------------------------------------------------------|
B|----------------------------------------------------------|
G|--9-9-9-9--9-9-9-7---9-9-9-7--9-9-9-9--9-9-9-7---9-9-9-7--|
D|----------------------------------------------------------|
A|--7-7-7-7--7-7-7-7---7-7-7-7--7-7-7-7--7-7-7-7---7-7-7-7--|
E|----------------------------------------------------------|

BASS:

G|-----------------------------------------------------------|
D|-----------------------------------------------------------|
A|--7-7-7-7--7-7-7-7---7-7-7-7--7-7-7-7--7-7-7-7---7-7-7-10--|
E|-----------------------------------------------------------|

GUITAR (Vocals):

e|---------------------------------------------------------------------|
B|--10----10----10----10----10-10-10-12-10--------------12-10--10------|
G|-----12----12----12----12----------------12---------9------------12--|
D|---------------------------------------------------------------------|
A|---------------------------------------------------------------------|
E|---------------------------------------------------------------------|

GUITAR (Rhythm):

e|---------------------------------------------5---5-5-5-5--|
B|--8-8-8-8--8-8-8-8---8-8-8-8--8-8-8-8--8-8-8-7---7-7-7-7--|
G|--9-9-9-9--9-9-9-9---9-9-9-9--9-9-9-9--9-9-9-7---7-7-7-7--|
D|--7-7-7-7--7-7-7-5---7-7-7-5--7-7-7-7--7-7-7-7---7-7-7-7--|
A|---------------------------------------------5---5-5-5-5--|
E|--8-8-8-8--8-8-8-8---8-8-8-8--8-8-8-8--8-8-8--------------|

GUITAR (Lead):

e|----------------------------------------------------------|
B|----------------------------------------------------------|
G|---------------------------------------------7---7-7-7-7--|
D|--7-7-7-7--7-7-7-5---7-7-7-5--7-7-7-7--7-7-7--------------|
A|--3-3-3-3--3-3-3-3---3-3-3-3--3-3-3-3--3-3-3-5---5-5-5-5--|
E|----------------------------------------------------------|

BASS:

G|----------------------------------------------------------|
D|----------------------------------------------------------|
A|--3-3-3-3--3-3-3-3---3-3-3-3--3-3-3-3--3-3-3-5---5-5-5-5--|
E|----------------------------------------------------------|

Touch off - Tron544
00:00 / 00:00
DONATE%20BUTTON%20(EN)_edited.png

Pre-Chorus/Pre-Estribillo:

GUITAR (Vocals):

e|-----------------------------------------------------------------------|
B|-----------------12-10--10------10--10/12---10----12p10--10------------|
G|--12-\-9--9----9------------12-------------------------------12-12-12--|
D|-----------------------------------------------------------------------|
A|-----------------------------------------------------------------------|
E|-----------------------------------------------------------------------|

GUITAR (Rhythm):

e|---3--3--3--3--5--5--5--5--0--0--0--0--3--3--3--3--|
B|---5--5--5--5--7--7--7--7--0--0--0--0--3--3--3--3--|
G|---5--5--5--5--7--7--7--7--0--0--0--0--4--4--4--4--|
D|---5--5--5--5--7--7--7--7--2--2--2--2--5--5--5--5--|
A|---3--3--3--3--5--5--5--5--2--2--2--2--5--5--5--5--|
E|---------------------------0--0--0--0--3--3--3--3--|

BASS:

G|-----------------------------------------------------------------|
D|-----------------------------------------------------------------|
A|---3-3-3--3-3-3--5-5-5--5-5-5--7-7-7--7-7-7--10-10-10--10-10-10--|
E|-----------------------------------------------------------------|

GUITAR (Vocals):

e|------------------------------------------------------------------------|
B|---------------------------------------------------12-p-10--10----------|
G|---9-9-9---------11-----------------11---11-\-9-----------------12--12--|
D|----------7-/-9------12--12--7-/-9--------------------------------------|
A|------------------------------------------------------------------------|
E|------------------------------------------------------------------------|

GUITAR (Rhythm):

e|---3--3--3--3--5--5--5--5--0--0--0--0--0--0--5--5--|
B|---5--5--5--5--7--7--7--7--0--0--0--0--0--0--7--7--|
G|---5--5--5--5--7--7--7--7--0--0--0--0--0--0--7--7--|
D|---5--5--5--5--7--7--7--7--2--2--2--2--2--2--7--7--|
A|---3--3--3--3--5--5--5--5--2--2--2--2--2--2--5--5--|
E|---------------------------0--0--0--0--0--0--------|

BASS:

G|-----------------------------------------------------------|
D|-----------------------------------------------------------|
A|---3-3-3--3-3-3--5-5-5--5-5-5--7-7-7--7-7-7--7-7-7--5-5-5--|
E|-----------------------------------------------------------|

GUITAR (Vocals):

e|---------------------------------------------------------------------|
B|-----------------12-10--10------10--10/12---10----12p10--10------12--|
G|--12-\-9--9----9------------12-------------------------------12------|
D|---------------------------------------------------------------------|
A|---------------------------------------------------------------------|
E|---------------------------------------------------------------------|

GUITAR (Rhythm):

e|---3--3--3--3--5--5--5--5--0--0--0--0--3--3--3--3--|
B|---5--5--5--5--7--7--7--7--0--0--0--0--3--3--3--3--|
G|---5--5--5--5--7--7--7--7--0--0--0--0--4--4--4--4--|
D|---5--5--5--5--7--7--7--7--2--2--2--2--5--5--5--5--|
A|---3--3--3--3--5--5--5--5--2--2--2--2--5--5--5--5--|
E|---------------------------0--0--0--0--3--3--3--3--|

BASS:

G|-----------------------------------------------------------------|
D|-----------------------------------------------------------------|
A|---3-3-3--3-3-3--5-5-5--5-5-5--7-7-7--7-7-7--10-10-10--10-10-10--|
E|-----------------------------------------------------------------|

GUITAR (Vocals):

e|-------------------------------------------------------|
B|---10--10------12--10----------------------------------|
G|-----------12----------12---12--11----11-\-9--9--------|
D|-------------------------------------------------------|
A|-------------------------------------------------------|
E|-------------------------------------------------------|

GUITAR (Rhythm):

e|---3--3--3--3--5--5--5--5-0----0----0--------|
B|---5--5--5--5--7--7--7--7-0----0----0--------|
G|---5--5--5--5--7--7--7--7-0----0----0--------|
D|---5--5--5--5--7--7--7--7-2----2----2--------|
A|---3--3--3--3--5--5--5--5-2----2----2--------|
E|--------------------------0----0----0--------|

BASS:

G|------------------------------------------------|
D|------------------------------------------------|
A|---3-3-3--3-3-3--5-5-5--5-5-5-7----7---7--------|
E|------------------------------------------------|

 


Chorus/Estribillo:

GUITAR (Vocals):

e|-----------|--------------------------------------------------------------------------|
B|-----------|--------------12--10h12--10-------------------------12--10h12--10------7--|
G|--12-12-9--|--12--12-9-12------------------12-12-9-12-9-12-9-12-----------------9-----|
D|-----------|--------------------------------------------------------------------------|
A|-----------|--------------------------------------------------------------------------|
E|-----------|--------------------------------------------------------------------------|

GUITAR (Rhythm):

e|--0--0-0-0-0--0--0-0--0--0--0--0-0-0-0--0--0-0--0--0--|
B|--0--0-0-0-0--0--0-0--0--0--0--0-0-0-0--0--0-0--0--0--|
G|--0--0-0-0-0--0--0-0--0--0--0--0-0-0-0--0--0-0--0--0--|
D|--2--2-2-2-2--2--2-2--2--2--2--2-2-2-2--2--2-2--2--2--|
A|--2--2-2-2-2--2--2-2--2--2--2--2-2-2-2--2--2-2--2--2--|
E|--0--0-0-0-0--0--0-0--0--0--0--0-0-0-0--0--0-0--0--0--|

GUITAR (Lead):

e|----------------------12------------------------12------|
B|--8--8-8-8-8--8--8-8--------8--8-8-8-8--8--8-8------12--|
G|--9--9-9-9-9--9--9-9--------9--9-9-9-9--9--9-9----------|
D|--------------------------------------------------------|
A|--------------------------------------------------------|
E|--------------------------------------------------------|

BASS:

G|------------------------------------------------------|
D|------------------------------------------------------|
A|------------------------------------------------------|
E|--0--0-0-0-0--0--0-0--0--0--0--0-0-0-0--0--0-0--0--0--|

GUITAR (Vocals):

e|-------------------------------------------------------------------|
B|--7h8--8--8-8-8-8--7---10/12--10-8-10-8---8------------------------|
G|----------------------------------------9----9-7-9--------12-12-9--|
D|-------------------------------------------------------------------|
A|-------------------------------------------------------------------|
E|-------------------------------------------------------------------|

GUITAR (Rhythm):

e|--3--3-3-3-5--5--5-5--5--5--0--0-0-0-0--0--0-0--0--0--|
B|--5--5-5-5-5--7--7-7--7--7--0--0-0-0-0--0--0-0--0--0--|
G|--5--5-5-5-5--7--7-7--7--7--0--0-0-0-0--0--0-0--0--0--|
D|--5--5-5-5-5--7--7-7--7--7--2--2-2-2-2--2--2-2--2--2--|
A|--3--3-3-3-3--5--5-5--5--5--2--2-2-2-2--2--2-2--2--2--|
E|----------------------------0--0-0-0-0--0--0-0--0--0--|

GUITAR (Lead):

e|------------------------------------------------12----|
B|--5--5-5-5-5--7--7-7--7--7--8--8-8-8-8--8--8-8--------|
G|--5--5-5-5-5--7--7-7--7--7--9--9-9-9-9--9--9-9--------|
D|------------------------------------------------------|
A|------------------------------------------------------|
E|------------------------------------------------------|

BASS:

G|------------------------------------------------------|
D|------------------------------------------------------|
A|--3--3-3-3-3--5--5-5--5--5----------------------------|
E|----------------------------0--0-0-0-0--0--0-0--0--0--|

GUITAR (Vocals):

e|-----------------------------------------------------------------------|
B|-----------12--10h12--10-------------------------12--10h12--10------7--|
G|--12---9-9------------------12-12-9-12-9-9-9-9-9-----------------9-----|
D|-----------------------------------------------------------------------|
A|-----------------------------------------------------------------------|
E|-----------------------------------------------------------------------|

GUITAR (Rhythm):

e|--0--0-0-0-0--0--0-0--0--0--0--0-0-0-0--0--0-0--0--0--|
B|--0--0-0-0-0--0--0-0--0--0--0--0-0-0-0--0--0-0--0--0--|
G|--0--0-0-0-0--0--0-0--0--0--0--0-0-0-0--0--0-0--0--0--|
D|--2--2-2-2-2--2--2-2--2--2--2--2-2-2-2--2--2-2--2--2--|
A|--2--2-2-2-2--2--2-2--2--2--2--2-2-2-2--2--2-2--2--2--|
E|--0--0-0-0-0--0--0-0--0--0--0--0-0-0-0--0--0-0--0--0--|

GUITAR (Lead):

e|----------------------12------------------------12------|
B|--8--8-8-8-8--8--8-8--------8--8-8-8-8--8--8-8------12--|
G|--9--9-9-9-9--9--9-9--------9--9-9-9-9--9--9-9----------|
D|--------------------------------------------------------|
A|--------------------------------------------------------|
E|--------------------------------------------------------|

BASS:

G|------------------------------------------------------|
D|------------------------------------------------------|
A|------------------------------------------------------|
E|--0--0-0-0-0--0--0-0--0--0--0--0-0-0-0--0--0-0--0--0--|

GUITAR (Vocals):

e|---------------------------------------------------------------|
B|--7h8--8--8-8-8-8--7---10/12--10-8-10-8---8-----------------7--|
G|----------------------------------------9----9-7-9-------9-----|
D|---------------------------------------------------------------|
A|---------------------------------------------------------------|
E|---------------------------------------------------------------|

GUITAR (Rhythm):

e|--3--3-3-3-5--5--5-5--5--5--0--0-0-0-0--0--0-0--0--0--|
B|--5--5-5-5-5--7--7-7--7--7--0--0-0-0-0--0--0-0--0--0--|
G|--5--5-5-5-5--7--7-7--7--7--0--0-0-0-0--0--0-0--0--0--|
D|--5--5-5-5-5--7--7-7--7--7--2--2-2-2-2--2--2-2--2--2--|
A|--3--3-3-3-3--5--5-5--5--5--2--2-2-2-2--2--2-2--2--2--|
E|----------------------------0--0-0-0-0--0--0-0--0--0--|

GUITAR (Lead):

e|------------------------------------------------12----|
B|--5--5-5-5-5--7--7-7--7--7--8--8-8-8-8--8--8-8--------|
G|--5--5-5-5-5--7--7-7--7--7--9--9-9-9-9--9--9-9--------|
D|------------------------------------------------------|
A|------------------------------------------------------|
E|------------------------------------------------------|

BASS:

G|------------------------------------------------------|
D|------------------------------------------------------|
A|--3--3-3-3-3--5--5-5--5--5----------------------------|
E|----------------------------0--0-0-0-0--0--0-0--0--0--|

GUITAR (Vocals):

e|-----------------------------------------------------------|
B|--7h8--8--8-8-8-8--7---10/12--10-8-10-8---8----------------|
G|----------------------------------------9----9-7-9---------|
D|-----------------------------------------------------------|
A|-----------------------------------------------------------|
E|-----------------------------------------------------------|

GUITAR (Rhythm):

e|--3--3-3-3-5--5--5-5--5--5----------------|
B|--5--5-5-5-5--7--7-7--7--7----------------|
G|--5--5-5-5-5--7--7-7--7--7----------------|
D|--5--5-5-5-5--7--7-7--7--7----------------|
A|--3--3-3-3-3--5--5-5--5--5----------------|
E|------------------------------------------|

GUITAR (Lead):

e|------------------------------------------|
B|--5--5-5-5-5--7--7-7--7--7----------------|
G|--5--5-5-5-5--7--7-7--7--7----------------|
D|------------------------------------------|
A|------------------------------------------|
E|------------------------------------------|

BASS:

 

G|------------------------------------------|
D|------------------------------------------|
A|--3--3-3-3-3--5--5-5--5--5----------------|
E|------------------------------------------|

©2015 by Fefe - Tron544

Sigueme en:

  • YouTube - White Circle
  • Facebook - White Circle
  • Instagram - White Circle
  • Twitter - White Circle
This site was designed with the
.com
website builder. Create your website today.
Start Now