TORIKAGO

DARLING IN THE FRANXX

CHORDS ~ By Fefe (Tron544)

 

Chords used/Acordes utilizados:

A: x.0.2.2.2.0 or x.5.7.7.5.5.5  -  Am: x.0.2.2.1.0 or 5.7.7.5.5.5
A/C#: x.4.7.6.5.x
B: x.2.4.4.4.2  -  B/D#: x.6.9.8.7.x
C: x.3.5.5.5.3
C#m: x.4.6.6.5.4
D: x.5.7.7.7.5  -  D/F#: x.2.5.4.2.3.x
E: 0.2.2.1.0.0 or x.7.9.9.9.7  -  Em: 0.2.2.0.0.0 or x.7.9.9.8.7
F#m: 2.4.4.2.2.2 or x.9.11.11.10.9
G: x.3.5.5.4.3.3
G#: 4.6.6.5.4.4  -  G#sus4: 4.6.6.6.4.4

| C#m B/D# | E F#m | A F#m | B G# |
| C#m B/D# | E F#m | A | G#sus4 G# |

 


          C#m    A         B     E       C#m   A           B   G#
   Kyoushitsu no... Madogoshi ni... Bonyari to... Sora ni tou...
          C#m  A          B   E      A     B      C#m
   Nan no tame... Boku wa ikite iru no? Wakannai yo
          C#m  A        B  E         C#m  A         B   G#
   Shiritai to... Omowanai... Koto bakari... Manabasare...
        C#m  A        B     E     A    B         C#m
   Kizuitara... Jibun no kotoba sae yaku shite ita

 


       A               B           C#m          E
   Kyoukasho no yohaku ni egaita risou no boku wa
      F#m          G#m
   Otonatachi no iinari janai
          A                   B
   Tobu tori no you na jiyuu ga atte

 


            C   D  Em          C     D   G
   Yume wo misetakuse ni kinaereru chikara wo
        C    B  Em   A/C#     C       D       G   B
   Ataete kurenai nante tsuraku naru dake da yo
         C     D   Em         C    D   G
   SUKAATO no take sae kimerareta nagasa de
         C    B    Em     A/C#     C       D      G
   Yaritai koto mo dekizu ni boku wa doko ni iru no?
        C                       D                  Em   D/F#   G
   Kokoro no naka... Koe ga suru... "Koko ni iru" to
 Am     Em   D/F#   G
   Sora wa...
G      Am      Em   D/F#   G   Am
   Kirei na no ni...

 


| C | F#m B | Em ||

Torikago - Tron544
00:00 / 00:00
DONATE%20BUTTON%20(EN)_edited.png

TABS ~ By Fefe (Tron544)

 

Verse/Estrofa:

e|--------|-----------------------------------------------------|
B|--9--7--|-----------------------------------------------9--7--|
G|--------|--9-9-----------------9--8-6-6--------6-8-8----------|
D|--------|---------6-6-7-9-9----------------7-9----------------|
A|--------|-----------------------------------------------------|
E|--------|-----------------------------------------------------|

e|-------------------------------------------------------------|
B|-----------------------9/10--9------------------------9-9-7--|
G|--9-9------8-9-9/11------------11-9-----9--8-6-6-------------|
D|---------9-----------9----------------9----------------------|
A|-------------------------------------------------------------|
E|-------------------------------------------------------------|

e|-------------------------------------------------------|
B|------------------------------------------------9-9-7--|
G|--9-9-----------------9-9-8-6-6--------6-8-8-----------|
D|---------6-6-7-9-9-----------------7-9-----------------|
A|-------------------------------------------------------|
E|-------------------------------------------------------|

e|-------------------------------------------------------------|
B|-----------------------9/10--9--------------------------9-7--|
G|--9-9------8-9-9/11------------11-9-----9--8-6-6------9------|
D|---------9-----------9----------------9----------------------|
A|-------------------------------------------------------------|
E|-------------------------------------------------------------|


Pre-Chorus/Pre-Estribillo:

e|----------------------------------------------------------|
B|---7-9--------7---9--9-p7---7--7-/9-----------------------|
G|--------6-8-9-------------9-----------9-8-8-/9------------|
D|---------------------------------------------------9-9-9--|
A|----------------------------------------------------------|
E|----------------------------------------------------------|

e|--------------------------------------------------------------------------|
B|--------------------------7-9-9/10----9----7--5-5--5-7/9-7------7-9-9/10--|
G|-------6--6-6-6----6-8--9-------------------------------------------------|
D|---7-9-----------9--------------------------------------------------------|
A|--------------------------------------------------------------------------|
E|--------------------------------------------------------------------------|


Chorus/Estribillo:

e|------------|--------------------------------------------------------------------------|
B|--12-12-10--|-----------------------------12-12-10---------10-----12/13--12------------|
G|------------|--12---12-11--9-11--11/12-------------12---12---------------------9-9-11--|
D|------------|--------------------------------------------------12----------------------|
A|------------|--------------------------------------------------------------------------|
E|------------|--------------------------------------------------------------------------|

e|---------------------------------------------------------------------------------|
B|----------10-----12--13-12-----10-12-12/13--12-10----------------------12-12-10--|
G|--12---12------------------12---------------------12--11-12/14-12----------------|
D|--------------12-----------------------------------------------------------------|
A|---------------------------------------------------------------------------------|
E|---------------------------------------------------------------------------------|

e|--------------------------------------------------------------------------|
B|-----------------------------12-12-10---------10-----12/13--12------------|
G|--12---12-11--9-11--11/12-------------12---12---------------------9-9-11--|
D|--------------------------------------------------12----------------------|
A|--------------------------------------------------------------------------|
E|--------------------------------------------------------------------------|

e|------------------------------------------------------------------------------------|
B|----------10-----12--13-12-----10-12-12/13--12-10----------------------10-12-12/13--|
G|--12---12------------------12---------------------12--11-12/14-12-------------------|
D|--------------12--------------------------------------------------------------------|
A|------------------------------------------------------------------------------------|
E|------------------------------------------------------------------------------------|

e|-----------------------------------------------------------------|
B|---12-10---------------------------------------------------------|
G|---------12-----9--9-11--12--12/14-----------11--11-11--11--7/9--|
D|------------------------------------------12---------------------|
A|-----------------------------------------------------------------|
E|-----------------------------------------------------------------|

 


Outro:

e|--------------------------------------------------------------|
B|---------------10-------------------12/13-12-10---------------|
G|------------------11-11/12-----------------------12-11-11/12--|
D|--------------------------------------------------------------|
A|--------------------------------------------------------------|
E|--------------------------------------------------------------|

©2015 by Fefe - Tron544

Sigueme en:

  • YouTube - White Circle
  • Facebook - White Circle
  • Instagram - White Circle
  • Twitter - White Circle
This site was designed with the
.com
website builder. Create your website today.
Start Now