TOP

TOWER OF GOD

CHORDS ~ By Fefe (Tron544)

 

Chords used/Acordes utilizados:

A: x.0.2.2.2.0
Bm: x.2.4.4.3.2
Em: 0.2.2.0.0.0
G: 3.5.5.4.3.3 or 3.2.0.0.3.3

         G        A         Bm
   Ten takaku haruka kanata e
          A      G           A          Bm
   Sobietatsu kaidan wo miageta kono omoi wo
           A        G
   Sakerarenai DESTINY
           A        Bm           A
   Kono mi hateru made subete wo kakete
   G                       A
   NEVER LET YOU GO, NEVER LET YOU GO
Bm
   Sara naru hikari ga terasu made I GO

 


                                 Bm
   CAN YOU TELL ME? Doko made oretachi ga ikeru ka tte
   Daremo ga shiranai reberu mezashite
                G
   Kotae nara kono me de shoumei noboritsume zenshin
     Em                                        
   Hade ni mata chousen shite koeru jikkan wo te ni
Bm
   YEAH norikoete iku dake
   Tagai ni te wo torikaeru fukanou sae
G
   Tatoe dou nattemo tomaranai OH
Em
   READY FOR FIGHT! I'LL BE LAST ONE THAT'S STANDING, WORD

 


         G        A         Bm
   Ten takaku haruka kanata e
          A      G           A          Bm
   Sobietatsu kaidan wo miageta kono omoi wo
           A        G
   Sakerarenai DESTINY
           A        Bm           A
   Kono mi hateru made subete wo kakete
   G                       A
   NEVER LET YOU GO, NEVER LET YOU GO
Bm
   Sara naru hikari ga terasu made I GO
                            G   A   Bm
   NO TURNING BACK (GO ON!)
       A   G   A
   Furikaerazu
        Bm                                G   A   Bm   A
   LOOK UP IN THE SKY, KEEP UP! (GO ON!)
   G                       A
   NEVER LET YOU GO, NEVER LET YOU GO
Bm
   Sara naru hikari ga terasu made I GO

TOP - Tron544
00:00 / 00:00
DONATE%20BUTTON%20(EN)_edited.png

TABS ~ By Fefe (Tron544)

 

Intro:

e|-------|----------------------------------------|
B|-------|--------10-10------------------7--------|
G|----6--|--7-7-7-------6--6-7-7-----7-9---9-7-6--|
D|--9----|-------------------------9--------------|
A|-------|----------------------------------------|
E|-------|----------------------------------------|

e|------------------------------------------------------|
B|------------------------------------------------------|
G|--7-----7-----7-----7-9-11-9h11-9-----9-11-12-11-9-7--|
D|----9-9---9-9---9-9----------------12-----------------|
A|------------------------------------------------------|
E|------------------------------------------------------|

e|--------------------------------------|
B|--------10-10----------------7--------|
G|--7-6-7-------6-6-7-7----7-9---9-7-6--|
D|-----------------------9--------------|
A|--------------------------------------|
E|--------------------------------------|

e|---------------------------------------------------|
B|----------7---------7---7--------------------------|
G|----------------------------------------------7----|
D|--9-9-9-9---9-9-9-9-------9-9-9-9-9-9-9-9-9-9---9--|
A|---------------------------------------------------|
E|---------------------------------------------------|


Chorus/Estribillo:

e|-------|----------------------------------------|
B|-------|--------10-10------------------7--------|
G|----6--|--7-7-7-------6--6-7-7-----7-9---9-7-6--|
D|--9----|-------------------------9--------------|
A|-------|----------------------------------------|
E|-------|----------------------------------------|

e|------------------------------------------------------|
B|------------------------------------------------------|
G|--7-----7-----7-----7-9-11-9h11-9-----9-11-12-11-9-7--|
D|----9-9---9-9---9-9----------------12-----------------|
A|------------------------------------------------------|
E|------------------------------------------------------|

e|--------------------------------------|
B|--------10-10----------------7--------|
G|--7-6-7-------6-6-7-7----7-9---9-7-6--|
D|-----------------------9--------------|
A|--------------------------------------|
E|--------------------------------------|

e|---------------------------------------------------|-----------------------|
B|----------7---------7---7--------------------------|-------------12-10/12--|
G|----------------------------------------------7----|-----------------------|
D|--9-9-9-9---9-9-9-9-------9-9-9-9-9-9-9-9-9-9---9--|-----------------------|
A|---------------------------------------------------|-----------------------|
E|---------------------------------------------------|--7--7-7--7------------|

 


Outro:

e|--------------------------------------------------------------|
B|-------------------------------------12---------12--12-10/12--|
G|-----------------7-9-9p7-9/11---------------------------------|
D|-----------------------------------9----9-9-9-9---------------|
A|--------------------------------------------------------------|
E|--------------------------------------------------------------|

e|-------------------------------------------------------------------|
B|--------------------------7---------7---7--------------------------|
G|--------------------------------------------------------------7----|
D|------------------9-9-9-9---9-9-9-9-------9-9-9-9-9-9-9-9-9-9---9--|
A|-------------------------------------------------------------------|
E|-------------------------------------------------------------------|

©2015 by Fefe - Tron544

Sigueme en:

  • YouTube - White Circle
  • Facebook - White Circle
  • Instagram - White Circle
  • Twitter - White Circle
This site was designed with the
.com
website builder. Create your website today.
Start Now