TOMORROW

KONO SUBARASHII SEKAI NI SHUKUFUKU WO!

TABS ~ By Fefe (Tron544)

 

Intro:

GUITAR (Rhythm):

e|---------|------------------------------------------------------------|
B|---------|------------------------------------------------------------|
G|--#-#-8--|--10--10--#-#--#--#-#-#-#-#-8--10--10--#-#--#--#-#-#-#-#-8--|
D|--#-#-8--|--10--10--#-#--#--#-#-#-#-#-8--10--10--#-#--#--#-#-#-#-#-8--|
A|--#-#-6--|--8---8---#-#--#--#-#-#-#-#-6--8---8---#-#--#--#-#-#-#-#-6--|
E|---------|------------------------------------------------------------|

e|----------------------------------------------------------|
B|----------------------------------------------------------|
G|--10--10--#-#--#--#-#-#-#-#-#-#-6--x-6-x-x-8---8-8--8--8--|
D|--10--10--#-#--#--#-#-#-#-#-#-#-6--x-6-x-x-8---8-8--8--8--|
A|--8---8---#-#--#--#-#-#-#-#-#-#-4--x-4-x-x-6---6-6--6--8--|
E|----------------------------------------------------------|

GUITAR (Lead):

e|---------------|------------------------------------------------------------------|
B|---------------|--10h11---10-----------------------10h11---10---------------------|
G|--------10-12--|---------------10------------10-12--------------10----10--12--10--|
D|--10-12--------|-----------------------10-12--------------------------------------|
A|---------------|------------------------------------------------------------------|
E|---------------|------------------------------------------------------------------|

GUITAR (Rhythm):

e|-----------------------------------------------------------------------------------|
B|-----------------------------------------------------------------------------------|
G|--10--10--10-10-10-10-10--10--10-10-10-10-9---9---9--9--9--9--9---9---9--9--9--9---|
D|--10--10--10-10-10-10-10--10--10-10-10-10-10--10--10-10-10-10-10--10--10-10-10-10--|
A|--8---8---8--8--8--8--8---8---8--8--8--8--7---7---7--7--7--7--7---7---7--7--7--7---|
E|-----------------------------------------------------------------------------------|

GUITAR (Lead):

e|-------------------------16---15-----------------|---------------|
B|----------13/18--------------------18------16----|--16h18--------|
G|--10---------------------------------------------|---------------|
D|-------------------------------------------------|---------------|
A|-------------------------------------------------|---------------|
E|-------------------------------------------------|---------------|

GUITAR (Rhythm):

e|--------------------------------------------------------|
B|--------------------------------------------------------|
G|--7--7--7-7-7-7-7--7--7-7-7-7-6--#-6-#-#-8---8-8--8--8--|
D|--7--7--7-7-7-7-7--7--7-7-7-7-6--#-6-#-#-8---8-8--8--8--|
A|--5--5--5-5-5-5-5--5--5-5-5-5-4--#-4-#-#-6---6-6--6--6--|
E|--------------------------------------------------------|

 


Verse/Estrofa:

GUITAR (Vocals):

e|----------------------------------------------------------|
B|------------------------------------10----8/10------------|
G|------------10--10--9--10--10/12-----------------12---10--|
D|--------10------------------------------------------------|
A|----------------------------------------------------------|
E|----------------------------------------------------------|

GUITAR (Rhythm):

e|------------------------------------------------------------------|
B|------------------------------------------------------------------|
G|--10--x-x-x-x-x-x-x-x-x-x-x-x-10--9---x-x-x-x-x-x-x-x-x-x-x-x-9---|
D|--10--x-x-x-x-x-x-x-x-x-x-x-x-10--10--x-x-x-x-x-x-x-x-x-x-x-x-10--|
A|--8---x-x-x-x-x-x-x-x-x-x-x-x-8---7---x-x-x-x-x-x-x-x-x-x-x-x-7---|
E|------------------------------------------------------------------|

GUITAR (Vocals):

e|----------------------------------------------------------|
B|------------------------------------10----8/10------------|
G|------------10--10--9--10--10/12-----------------12---10--|
D|--------10------------------------------------------------|
A|----------------------------------------------------------|
E|----------------------------------------------------------|

GUITAR (Rhythm):

e|--------------------------------------------------------------|
B|--------------------------------------------------------------|
G|--7--x-x-x-x-x-x-x-x-x-x-x-x-7--5--x-x-x-x-x-x-x-x-x-x-x-x-5--|
D|--7--x-x-x-x-x-x-x-x-x-x-x-x-7--5--x-x-x-x-x-x-x-x-x-x-x-x-5--|
A|--5--x-x-x-x-x-x-x-x-x-x-x-x-5--3--x-x-x-x-x-x-x-x-x-x-x-x-3--|

E|--------------------------------------------------------------|

GUITAR (Vocals):

e|---------------------------------------------------------------|
B|--10/11--------------------------------------------------------|
G|----------10---10----10--10--10--12/13---13---12----10--8--10--|
D|---------------------------------------------------------------|
A|---------------------------------------------------------------|
E|---------------------------------------------------------------|

GUITAR (Rhythm):

e|------------------------------------------------------------|
B|------------------------------------------------------------|
G|--3--x-x-x-x-x-x-x-x-x-x-x-x-3--6--x-6-x-x-8---8-8--8--8-8--|
D|--3--x-x-x-x-x-x-x-x-x-x-x-x-3--6--x-6-x-x-8---8-8--8--8-8--|
A|--1--x-x-x-x-x-x-x-x-x-x-x-x-1--4--x-4-x-x-6---6-6--6--8-6--|
E|------------------------------------------------------------|

e|-----------------------------------------------------------------|
B|-----------------------------------------------------------------|
G|--10--10--10--#-8--8--8-8--#-#-----------------------------------|
D|--10--10--10--#-8--8--8-8--#-#-8--x-8-x-x-10---10-10--10--10-10--|
A|--8---8---8---#-6--6--6-6--#-#-8--x-8-x-x-10---10-10--10--10-10--|
E|-------------------------------6--x-6-x-x-8----8--8---8---8--8---|

GUITAR (Vocals):

e|----------------------------------------------------------|
B|------------------------------------10----8/10------------|
G|------------10--10--9--10--10/12-----------------12---10--|
D|--------10------------------------------------------------|
A|----------------------------------------------------------|
E|----------------------------------------------------------|

GUITAR (Rhythm):

e|------------------------------------------------------------------|
B|------------------------------------------------------------------|
G|--10--x-x-x-x-x-x-x-x-x-x-x-x-10--9---x-x-x-x-x-x-x-x-x-x-x-x-9---|
D|--10--x-x-x-x-x-x-x-x-x-x-x-x-10--10--x-x-x-x-x-x-x-x-x-x-x-x-10--|
A|--8---x-x-x-x-x-x-x-x-x-x-x-x-8---7---x-x-x-x-x-x-x-x-x-x-x-x-7---|
E|------------------------------------------------------------------|

GUITAR (Vocals):

e|------------------------------------------------------------|
B|---------------------------11/13---10---10--8/10------------|
G|------------10--10--9--10--------------------------12---10--|
D|--------10--------------------------------------------------|
A|------------------------------------------------------------|
E|------------------------------------------------------------|

GUITAR (Rhythm):

e|--------------------------------------------------------------|
B|--------------------------------------------------------------|
G|--7--x-x-x-x-x-x-x-x-x-x-x-x-7--5--x-x-x-x-x-x-x-x-x-x-x-x-5--|
D|--7--x-x-x-x-x-x-x-x-x-x-x-x-7--5--x-x-x-x-x-x-x-x-x-x-x-x-5--|
A|--5--x-x-x-x-x-x-x-x-x-x-x-x-5--3--x-x-x-x-x-x-x-x-x-x-x-x-3--|
E|--------------------------------------------------------------|

GUITAR (Vocals):

e|--------------------------------------------------------------------|
B|--10/11--------------------------10/11---11---10h11-----10--11--10--|
G|----------10---10----10--10--10-------------------------------------|
D|--------------------------------------------------------------------|
A|--------------------------------------------------------------------|
E|--------------------------------------------------------------------|

GUITAR (Rhythm):

e|------------------------------------------------------------|
B|------------------------------------------------------------|
G|--3--x-x-x-x-x-x-x-x-x-x-x-x-3--6--x-6-x-x-8---8-8--8--8-8--|
D|--3--x-x-x-x-x-x-x-x-x-x-x-x-3--6--x-6-x-x-8---8-8--8--8-8--|
A|--1--x-x-x-x-x-x-x-x-x-x-x-x-1--4--x-4-x-x-6---6-6--6--8-6--|
E|------------------------------------------------------------|

e|-----------------------------------------------------------------|
B|-----------------------------------------------------------------|
G|--10--10--10--#-8--8--8-8--#-#-8--x-9-x-x-10---10-10--10--10-10--|
D|--10--10--10--#-8--8--8-8--#-#-8--x-9-x-x-10---10-10--10--10-10--|
A|--8---8---8---#-6--6--6-6--#-#-6--x-7-x-x-8----8--8---8---8--8---|
E|-----------------------------------------------------------------|


Pre-Chorus/Pre-Estribillo:

GUITAR (Vocals):

e|---------|------------------------------------------------------|
B|---------|----------------------11------------------------------|
G|------9--|--9h10------10--10----------10/12----------12--10--9--|
D|--12-----|------------------------------------------------------|
A|---------|------------------------------------------------------|
E|---------|------------------------------------------------------|

GUITAR (Rhythm):

e|------------------------3------------------|
B|-------------3----------5--------10--------|
G|----------3-------------5--------12--------|
D|------3-----------------5------------------|
A|------------------------3------------------|
E|--3----------------------------------------|

GUITAR (Vocals):

e|-----------------------------------------|
B|-----------------------------------------|
G|--9--------------------------------------|
D|-------10---\7---7--5---7-------------7--|
A|----------------------------------10-----|
E|-----------------------------------------|

GUITAR (Rhythm):

e|----------------------------------------------|
B|-------------1--------------8---5--6----------|
G|----------2-----------------------------------|
D|------3---------------------------------------|
A|------------------------5---------------------|
E|--1-------------------------------------------|

GUITAR (Vocals):

e|---------------------------------------------------|
B|---------------------------------------------------|
G|--------------------------------------------7---9--|
D|--7h8------8--8---8---8--8/10------10--10----------|
A|---------------------------------------------------|
E|---------------------------------------------------|

GUITAR (Rhythm):

e|--3----------------5----------------|
B|--3----------------5----------------|
G|--3----------------5----------------|
D|--5----------------7----------------|
A|--5----------------7----------------|
E|--3----------------5----------------|

GUITAR (Vocals):

e|------------------------------------------------------------|
B|------------------------------------------------------------|
G|--9/10------10--10---10---10--10/12----10----8---10---8/10--|
D|------------------------------------------------------------|
A|------------------------------------------------------------|
E|------------------------------------------------------------|

GUITAR (Rhythm):

e|--6----------------8-----------------|
B|--6----------------8-----------------|
G|--6----------------8-----------------|
D|--8----------------10----------------|
A|--8----------------10----------------|
E|--6----------------8-----------------|

TOMORROW - Tron544
00:00 / 00:00
DONATE%20BUTTON%20(EN)_edited.png

Chords/Estribillo:

GUITAR (Vocals):

e|----------------------|----------------------------------------------|
B|----------8-10--8/10--|----------------------------------8-10--8/10--|
G|--10--10--------------|--------------------------10--10--------------|
D|----------------------|----------------------------------------------|
A|----------------------|----------------------------------------------|
E|----------------------|----------------------------------------------|

GUITAR (Rhythm):

e|--------------------------------------------------------------|
B|--------------------------------------------------------------|
G|--------------------------------------------------------------|
D|--8--x-x-x-x-x-x-x-x-x-x-x-x-8--8--x-x-x-x-x-x-x-x-x-x-x-x-8--|
A|--8--x-x-x-x-x-x-x-x-x-x-x-x-8--8--x-x-x-x-x-x-x-x-x-x-x-x-8--|
E|--6--x-x-x-x-x-x-x-x-x-x-x-x-6--6--x-x-x-x-x-x-x-x-x-x-x-x-6--|

GUITAR (Vocals):

e|------------------------------------------|
B|------11--10------11--10------------------|
G|------------------------------------------|
D|------------------------------------------|
A|------------------------------------------|
E|------------------------------------------|

GUITAR (Rhythm):

e|--------------------------------------------------------------|
B|--------------------------------------------------------------|
G|--------------------------------------------------------------|
D|--7--x-x-x-x-x-x-x-x-x-x-x-x-7--7--x-x-x-x-x-x-x-x-x-x-x-x-7--|
A|--7--x-x-x-x-x-x-x-x-x-x-x-x-7--7--x-x-x-x-x-x-x-x-x-x-x-x-7--|
E|--5--x-x-x-x-x-x-x-x-x-x-x-x-5--5--x-x-x-x-x-x-x-x-x-x-x-x-5--|

GUITAR (Vocals):

e|-------------------------------------------------------------|
B|--10/11----10--------------10/11------10----11/13---10-------|
G|-----------------12---10---------------------------------12--|
D|-------------------------------------------------------------|
A|-------------------------------------------------------------|
E|-------------------------------------------------------------|

GUITAR (Rhythm):

e|------------------------------------|
B|------------------------------------|
G|-------------------6----------------|
D|--5----------------7----------------|
A|--5----------------4----------------|
E|--3---------------------------------|

GUITAR (Vocals):

e|------------------------------------------------|
B|------------------------------------8-10--8/10--|
G|--10------------------------10--10--------------|
D|------------------------------------------------|
A|------------------------------------------------|
E|------------------------------------------------|

GUITAR (Rhythm):

e|---------------------------------------------------|
B|---------------------------------------------------|
G|--7-------------------7--#-#-6--#-#-5--#-#---------|
D|--7----------------------#-#----#-#----#-#-3--#-#--|
A|--5-------------------5--#-#-4--#-#-3--#-#----#-#--|
E|---------------12\-------------------------1--#-#--|

GUITAR (Vocals):

e|----------------------------------------------|
B|----------------------------------8-10--8/10--|
G|--------------------------10--10--------------|
D|----------------------------------------------|
A|----------------------------------------------|
E|----------------------------------------------|

GUITAR (Rhythm):

e|------------------------------------------|
B|------------------------------------------|
G|------------3------------------5----------|
D|----------------------------5-------------|
A|--1----3/5-------------3------------------|
E|------------------------------------------|

GUITAR (Vocals):

e|------10------------12--13------------------------|
B|----------13----10------------------------13------|
G|--------------------------------------10------10--|
D|--------------------------------------------------|
A|--------------------------------------------------|
E|--------------------------------------------------|

GUITAR (Rhythm):

e|----------------------------------------------|
B|----------------------------------------------|
G|----------5---------------------7--------5----|
D|----------------------------7---------5-------|
A|------7------4-------4--5----------3----------|
E|--5--------------5----------------------------|

GUITAR (Vocals):

e|------------------13----------------------------|
B|----------------------13----11--10--------------|
G|--10----------10--------------------10----------|
D|------------------------------------------------|
A|------------------------------------------------|
E|------------------------------------------------|

GUITAR (Rhythm):

e|---------------------------------------------------------------|
B|---------------------------------------------------------------|
G|--3--x-x-x-x-x-x-5--x-x-x-x-x-x----------------7--x-x-x-x-x-x--|
D|--3--x-x-x-x-x-x-5--x-x-x-x-x-x-7--x-x-x-x-x-x-7--x-x-x-x-x-x--|
A|--1--x-x-x-x-x-x-3--x-x-x-x-x-x-7--x-x-x-x-x-x-5--x-x-x-x-x-x--|
E|--------------------------------5--x-x-x-x-x-x-----------------|

GUITAR (Vocals):

e|------------------------------------------------------|
B|--10--------------------------------------------------|
G|-------12---12--12---10---10--10----9---------9---10--|
D|-----------------------------------------12-----------|
A|------------------------------------------------------|
E|------------------------------------------------------|

GUITAR (Rhythm):

e|------------------------------------|
B|------------------------------------|
G|-------------------5----------------|
D|--5----------------5----------------|
A|--5----------------3----------------|
E|--3---------------------------------|

©2015 by Fefe - Tron544

Sigueme en:

  • YouTube - White Circle
  • Facebook - White Circle
  • Instagram - White Circle
  • Twitter - White Circle
This site was designed with the
.com
website builder. Create your website today.
Start Now