TOKI WO KIZAMU UTA

CLANNAD ~AFTER STORY~

TABS ~ By Fefe (Tron544)

 

Verse/Estrofa:

e|----------------------------------------------------|
B|--8-7-----------------------------------------------|
G|------9-7--------7-9-11--9--11--11/12--9--9-\7-7----|
D|----------9--7-9------------------------------------|
A|----------------------------------------------------|
E|----------------------------------------------------|

e|----------------------------------------------------------|
B|--8-7--------------------------12--------------------7-8--|
G|------9-7--------7-9-11--9--9------12-\11-11-p9-9---------|
D|----------9--7-9------------------------------------------|
A|----------------------------------------------------------|
E|----------------------------------------------------------|

e|---------8--5/7------------------------------|
B|--10--8------------7-8-10--7-----------------|
G|------------------------------7--7/9------7--|
D|----------------------------------------7----|
A|---------------------------------------------|
E|---------------------------------------------|

e|-----------------------------5/7---------------------|
B|--------10-----------7-8--5--------------------------|
G|--9--7------7/9----7--------------7----6--6/7--------|
D|-----------------------------------------------------|
A|-----------------------------------------------------|
E|-----------------------------------------------------|

Toki wo Kizamu Uta - Tron544
00:00 / 00:00
DONATE%20BUTTON%20(EN)_edited.png

Chorus/Estribillo:

e|------------|-----------------------------------10---------------|
B|------------|--8---10---8/10---------8-8---10------10/12---------|
G|---------7--|----------------------------------------------------|
D|------7-----|----------------------------------------------------|
A|------------|----------------------------------------------------|
E|------------|----------------------------------------------------|

e|------------------------------------------------|
B|--8---10---8/10----------7---8------------------|
G|---------------------------------5/7---------7--|
D|------------------------------------------7-----|
A|------------------------------------------------|
E|------------------------------------------------|

e|----------------------------------10---------------|
B|--8---10---8/10----------8---10------10/12---------|
G|---------------------------------------------------|
D|---------------------------------------------------|
A|---------------------------------------------------|
E|---------------------------------------------------|

e|----------------------------------------------|
B|--8---10---8/10----------7---8---7/8----------|
G|----------------------------------------------|
D|----------------------------------------------|
A|----------------------------------------------|
E|----------------------------------------------|

 


Outro:

e|-------------------------------------------|
B|-------------------------------------------|
G|----4---7-----4---7-----4---7-----4---7----|
D|--7---5---5-7---5---5-7---5---5-7---5---5--|
A|-------------------------------------------|
E|-------------------------------------------|

e|---------------------------------------------|
B|---------------------------------------------|
G|----4---7-----4---7-----4---7-----4---7/9-7--|
D|--7---5---5-7---5---5-7---5---5-7---7--------|
A|---------------------------------------------|

E|---------------------------------------------|

e|-------------------------------------------|
B|-------------------------------------------|
G|----4---7-----4---7-----4---7-----4---7----|
D|--7---5---5-7---5---5-7---5---5-7---5---5--|
A|-------------------------------------------|
E|-------------------------------------------|

e|---------------------------------------|
B|---------------------------------------|
G|----4---7-----4---7-----4---7----------|
D|--7---5---5-7---5---5-7---5---5-5------|
A|---------------------------------------|
E|---------------------------------------|

©2015 by Fefe - Tron544

Sigueme en:

  • YouTube - White Circle
  • Facebook - White Circle
  • Instagram - White Circle
  • Twitter - White Circle
This site was designed with the
.com
website builder. Create your website today.
Start Now