THROUGH THE VALLEY

THE LAST OF US 2

TABS ~ By Fefe (Tron544)

 

Intro:

GUITAR 1 (Capo, 4th fret):

e|-------------------------------------------------------------------------|
B|---------0-----------------0-----------------0-----------------0---------|
G|-------------0-----------------0-----------------0-----------------0-----|
D|------2---------2-------2---------2-------2---------2-------2---------2--|
A|-------------------------------------------------------------------------|
E|--0-----------------0-----------------0-----------------0----------------|

 


Part A/Parte A:

GUITAR 1 (Capo, 4th fret):

e|-------------------------------------------------------------------------|
B|---------0-----------------0-----------------1-----------------1---------|
G|-------------0-----------------0-----------------2-----------------2-----|
D|------2---------2-------2---------2-------2---------2-------2---------2--|
A|--------------------------------------0-----------------0----------------|
E|--0-----------------0----------------------------------------------------|

GUITAR 2:

e|---------|--------------------------------------------------------------|
B|---------|--------------------------------------------------------------|
G|---------|--------------------------------4-/-6-------------------------|
D|--9---6--|--6------9---6--6--9------9--6----------9---8---6------9---6--|
A|---------|--------------------------------------------------------------|
E|---------|--------------------------------------------------------------|

GUITAR 1 (Capo, 4th fret):

e|-------------------------------------------------------------------------|
B|---------0-----------------0-----------------0-----------------0---------|
G|-------------0-----------------0-----------------2-----------------2-----|
D|------2---------2-------2---------2-------1---------1-------1---------1--|
A|--------------------------------------2-----------------2----------------|
E|--0-----------------0----------------------------------------------------|

GUITAR 2:

e|----------------------------------------------------------------------------|
B|--------------------------------------------7-------------------------------|
G|-----------------------------6---6-/-8---------8---6-/-8-\-6---------6---6--|
D|--6------9--6--9------9--9----------------------------------------9---------|
A|----------------------------------------------------------------------------|
E|----------------------------------------------------------------------------|

GUITAR 1 (Capo, 4th fret):

e|-------------------------------------------------------------------------|
B|---------0-----------------0-----------------1-----------------1---------|
G|-------------0-----------------0-----------------2-----------------2-----|
D|------2---------2-------2---------2-------2---------2-------2---------2--|
A|--------------------------------------0-----------------0----------------|
E|--0-----------------0----------------------------------------------------|

GUITAR 2:

e|------------------------------------------------|
B|------------------------------------------------|
G|----------------------------4-/-6------------6--|
D|--9------9--9------6--9--6-------------9--9-----|
A|------------------------------------------------|
E|------------------------------------------------|

GUITAR 1 (Capo, 4th fret):

e|--------------------------------------------------------0--|
B|---------0-----------------0-----------------0----------0--|
G|-------------0-----------------2-----------------0------0--|
D|------2---------2-------1---------1-------2---------2---2--|
A|--------------------2-----------------------------------2--|
E|--0-----------------------------------0-----------------0--|

GUITAR 2:

e|--------------------------------------------------|
B|--------------------------------------------------|
G|--6-/-8---8---8---8--8-\-6--6---------6---6-------|
D|-----------------------------------9-----------9--|
A|--------------------------------------------------|
E|--------------------------------------------------|

Through the Valley (Backing Track) - Tron544
00:00 / 00:00
DONATE%20BUTTON%20(EN)_edited.png

Part B/Parte B:

GUITAR 1 (Capo, 4th fret):

e|--0----0----0--0--0--0---0--0----0----0----0--0--0--0---0--0--|
B|--0----0----0--0--0--0---0--0----1----1----1--1--1--1---1--1--|
G|--0----0----0--0--0--0---0--0----2----2----2--2--2--2---2--2--|
D|--2----2----2--2--2--2---2--2----2----2----2--2--2--2---2--2--|
A|--2----2----2--2--2--2---2--2----0----0----0--0--0--0---0--0--|
E|--0----0----0--0--0--0---0--0---------------------------------|

GUITAR 2:

e|--------|------------------------------------------------------------------------|
B|--------|------------------------------------------------------------------------|
G|--------|----------------------------------------4-/-6---------------------------|
D|--9--6--|--9--6--6---9---9--9---9--6--6----6--6----------9---8---6------6--9--6--|
A|--------|------------------------------------------------------------------------|
E|--------|------------------------------------------------------------------------|

GUITAR 1 (Capo, 4th fret):

e|--0----0----0--0--0--0---0--0----0----0----0--0--0--0---0--0--|
B|--0----0----0--0--0--0---0--0----0----0----0--0--0--0---0--0--|
G|--0----0----0--0--0--0---0--0----2----2----2--2--2--2---2--2--|
D|--2----2----2--2--2--2---2--2----1----1----1--1--1--1---1--1--|
A|--2----2----2--2--2--2---2--2----2----2----2--2--2--2---2--2--|
E|--0----0----0--0--0--0---0--0---------------------------------|

GUITAR 2:

e|---------------------------------------------------------------------|
B|---------------------------------------------------------------------|
G|-----------------------------6-/-8------6--8---6-/-8-\-6----------6--|
D|--6------9--6--6---6--9--6------------------------------------9------|
A|---------------------------------------------------------------------|
E|---------------------------------------------------------------------|

GUITAR 1 (Capo, 4th fret):

e|--0----0----0--0--0--0---0--0----0----0----0--0--0--0---0--0--|
B|--0----0----0--0--0--0---0--0----1----1----1--1--1--1---1--1--|
G|--0----0----0--0--0--0---0--0----2----2----2--2--2--2---2--2--|
D|--2----2----2--2--2--2---2--2----2----2----2--2--2--2---2--2--|
A|--2----2----2--2--2--2---2--2----0----0----0--0--0--0---0--0--|
E|--0----0----0--0--0--0---0--0---------------------------------|

GUITAR 2:

e|-------------------------------------------------------------------------------|
B|------------------------------------------------7------------------------7-----|
G|--6-h-8----6--6-------6---6---------4/6------------8--6-/-8---6-------------8--|
D|-------------------9----------9--6-----------9-------------------9----9--------|
A|-------------------------------------------------------------------------------|
E|-------------------------------------------------------------------------------|

GUITAR 1 (Capo, 4th fret):

e|--0----0----0---0--0---0---0--0---0----0----0--|
B|--0----0----0---0--0---0---0--0---0----0----0--|
G|--0----0----0---2--2---2---2--2---0----0----0--|
D|--2----2----2---1--1---1---1--1---2----2----2--|
A|--2----2----2---2--2---2---2--2---2----2----2--|
E|--0----0----0---------------------0----0----0--|

GUITAR 2:

e|----------------------------------------------------------|
B|----------------------------------------------------------|
G|--6-/-8---8--8--8---8--8--8-\-6---------6--6----4-/-6-----|
D|-------------------------------------9-----------------9--|
A|----------------------------------------------------------|
E|----------------------------------------------------------|


Outro:

GUITAR 1 (Capo, 4th fret):

e|--0----------0----------0--|
B|--0----------0----------0--|
G|--0----------2----------0--|
D|--2----------1----------2--|
A|--2----------2----------2--|
E|--0---------------------0--|

GUITAR 2:

e|-----------|-------------------------------------------------------------------|
B|-----7-----|-------------------------------------------------------------------|
G|--------8--|--6-/-8-----8--8--8---8--8--8-\-6---------6--6------4-/-6----------|
D|--9--------|---------------------------------------9--------------------9---6--|
A|-----------|-------------------------------------------------------------------|
E|-----------|-------------------------------------------------------------------|

©2015 by Fefe - Tron544

Sigueme en:

  • YouTube - White Circle
  • Facebook - White Circle
  • Instagram - White Circle
  • Twitter - White Circle
This site was designed with the
.com
website builder. Create your website today.
Start Now