THE WORLD

DEATH NOTE

TABS ~ By Fefe (Tron544)

 

Intro:

 

GUITAR 1:

 

e|-----------|

B|-----------|

G|-----------|

D|--4--4--4--|

A|--4--4--4--|

E|--2--2--2--|

 

GUITAR 2:

 

e|-----------|

B|-----------|

G|--6--7--9--|

D|-----------|

A|-----------|

E|-----------|

GUITAR 1:

 

e|--------------------------|

B|--------------------------|

G|--4-----------------------|

D|--4------7------5------4--|

A|--2------7------5------4--|

E|---------5------3------2--|

 

GUITAR 2:

 

e|-------------------------------------------------------------------|

B|--7--7--7--7--10--8--7--7--7--7----7-------------------7--7--------|

G|--------------------------------9-----7--7--7----7--9--------9--9--|

D|-------------------------------------------------------------------|

A|-------------------------------------------------------------------|

E|-------------------------------------------------------------------|

 

GUITAR 1:

 

e|--------------------------|

B|--------------------------|

G|--4-----------------------|

D|--4------7------5------4--|

A|--2------7------5------4--|

E|---------5------3------2--|

 

GUITAR 2:

 

e|-----------|-------------------------------------------------------------|

B|-----------|--7--7--7--7--10--8--7-----------------------8--7------8--7--|

G|--6--7--9--|--------------------------9--7--6--7------7------------------|

D|-----------|-------------------------------------------------------------|

A|-----------|-------------------------------------------------------------|

E|-----------|-------------------------------------------------------------|

 

GUITAR 1:

 

e|--------------------------|-----------------------|

B|--------------------------|-----------------------|

G|--4-------------7---------|--4--4--x--6--6--x--7--|

D|--4------5------7------4--|-----------------------|

A|--2------5------5------4--|--2--2--x--4--4--x--5--|

E|---------3-------------2--|-----------------------|

 

 

Verse/Estrofa:

 

GUITAR 1:

 

e|----------------------------------------------------|-----------------------------------------------------|

B|----------------------------------------------------|-----------------------------------------------------|

G|-(4)-x--x--x---x--x--x--x---x--x--x--x---x--x--x--x-|-----------------------------------------------------|

D|-(4)-x--x--x---x--x--x--x---x--x--x--x---x--x--x--x-|-(5)-x--x--x---x--x--x--x---x--x--x--x---x--x--x--x--|

A|-(2)-x--x--x---x--x--x--x---x--x--x--x---x--x--x--x-|-(5)-x--x--x---x--x--x--x---x--x--x--x---x--x--x--x--|

E|----------------------------------------------------|-(3)-x--x--x---x--x--x--x---x--x--x--x---x--x--x--x--|

 

GUITAR 2:

 

e|-----------------------|---------------|

B|--7--5-----------------|--5------------|

G|--------7--6--4--6--7--|---------7--7--|

D|-----------------------|---------------|

A|-----------------------|---------------|

E|-----------------------|---------------|

 

GUITAR 1:

 

e|----------------------------------------------------|-----------------------------------------------------|

B|----------------------------------------------------|-----------------------------------------------------|

G|-(7)-x--x--x---x--x--x--x---x--x--x--x---x--x--x--x-|-----------------------------------------------------|

D|-(7)-x--x--x---x--x--x--x---x--x--x--x---x--x--x--x-|-(4)-x--x--x---x--x--x--x---x--x--x--x---x--x--x--x--|

A|-(5)-x--x--x---x--x--x--x---x--x--x--x---x--x--x--x-|-(4)-x--x--x---x--x--x--x---x--x--x--x---x--x--x--x--|

E|----------------------------------------------------|-(2)-x--x--x---x--x--x--x---x--x--x--x---x--x--x--x--|

 

GUITAR 2:

 

e|------------------------|---------------|

B|------------------5-----|-----5--5-/-7--|

G|--6--7------7--7-----6--|--7------------|

D|------------------------|---------------|

A|------------------------|---------------|

E|------------------------|---------------|

 

GUITAR 1:

 

e|------------------------------------------------------|---------------------------------------------|

B|------------------------------------------------------|---------------------------------------------|

G|------------------------------------------------------|---------------------------------------------|

D|--(5)-x--x--x---x--x--x--x---x--x--x--x---x--x--x--x--|--(7)-x--x--x---x--x--x--x---x--x--x--x---7--|

A|--(5)-x--x--x---x--x--x--x---x--x--x--x---x--x--x--x--|--(7)-x--x--x---x--x--x--x---x--x--x--x---7--|

E|--(3)-x--x--x---x--x--x--x---x--x--x--x---x--x--x--x--|--(5)-x--x--x---x--x--x--x---x--x--x--x---5--|

The World - Tron544
00:00 / 00:00
DONATE%20BUTTON%20(EN)_edited.png

Pre-Chorus/Pre-Estribillo:

 

GUITAR 1:

 

e|-------------------|-------------------------|

B|-------------------|-------------------------|

G|---------7---------|-------------------------|

D|--5------7------4--|--4--4--4--4----4--4--4--|

A|--5------5------4--|--4--4--4--4----4--4--4--|

E|--3-------------2--|--2--2--2--2----2--2--2--|

 

GUITAR 2:

 

e|-------------5--|----------------------------------|

B|--7--5--7-------|--5-----5---------------5--5-/-7--|

G|----------------|-----7-----6------6--7------------|

D|----------------|----------------------------------|

A|----------------|----------------------------------|

E|----------------|----------------------------------|

 

 

Chorus/Estribillo:

 

GUITAR 1:

 

e|--------------------------|

B|--------------------------|

G|--4-----------------------|

D|--4------7------5------4--|

A|--2------7------5------4--|

E|---------5------3------2--|

 

GUITAR 2:

 

e|-----------|-------------------------------------------------------------------|

B|-----------|--7--7--7--7--10--8--7--7--7--7----7-------------------7--7--------|

G|--6--7--9--|--------------------------------9-----7--7--7----7--9--------9--9--|

D|-----------|-------------------------------------------------------------------|

A|-----------|-------------------------------------------------------------------|

E|-----------|-------------------------------------------------------------------|

 

GUITAR 1:

 

e|--------------------------|

B|--------------------------|

G|--4-----------------------|

D|--4------7------5------4--|

A|--2------7------5------4--|

E|---------5------3------2--|

 

GUITAR 2:

 

e|-----------|---------------------------------------------------|

B|-----------|--7--7--7--7--10--8--7-----------------------8--7--|

G|--6--7--9--|--------------------------9--7--6--7------7--------|

D|-----------|---------------------------------------------------|

A|-----------|---------------------------------------------------|

E|-----------|---------------------------------------------------|

 

 

Outro:

 

GUITAR 1:

 

e|--------------------|----------|

B|--------------------|----------|

G|------------4-------|----------|

D|--5----7----4----7--|--5----4--|

A|--5----7----2----7--|--5----4--|

E|--3----5---------5--|--3----2--|

 

GUITAR 2:

 

e|--------------------------------------------|-------------------------------------------|

B|------------------7-------------------------|--------------------7---------10--8--8--7--|

G|--7--6---------------9--9--7--6-------7--9--|--7--6-----------7-----9-------------------|

D|--------9------9-----------------9----------|--------7--9--9----------------------------|

A|--------------------------------------------|-------------------------------------------|

E|--------------------------------------------|-------------------------------------------|

 

e|--------------------------|-----------------------|

B|--------------------------|-----------------------|

G|--4-----------------------|--4--4--x--6--6--x--7--|

D|--4------7------5------4--|-----------------------|

A|--2------7------5------4--|--2--2--x--4--4--x--5--|

E|---------5------3------2--|-----------------------|

©2015 by Fefe - Tron544

Sigueme en:

  • YouTube - White Circle
  • Facebook - White Circle
  • Instagram - White Circle
  • Twitter - White Circle
This site was designed with the
.com
website builder. Create your website today.
Start Now