THE WHIMS OF FATE

PERSONA 5

TABS ~ By Fefe (Tron544)

 

Intro: x4

GUITAR (Wah-Wah):

e|-----------------------------------------------------------|
B|--6--#-#-6--#-#-6--#-#-6--#-#-5--#-#-5--#-#-5--#-#-5--#-#--|
G|--7--#-#-7--#-#-7--#-#-7--#-#-5--#-#-5--#-#-5--#-#-5--#-#--|
D|--7--#-#-7--#-#-7--#-#-7--#-#-5--#-#-5--#-#-5--#-#-5--#-#--|
A|-----------------------------------------------------------|
E|-----------------------------------------------------------|

BASS:

G|-------------------------------------------------------|
D|------------------3------------------------------2-----|
A|--3h5--5--5--3-5----3--5----0h3--3--3-------3-------3--|
E|--------------------------3------------3-5----5--------|

 


Part A/Parte A:

GUITAR (Vocals):

e|-----------------------------------------------------------------------------------------|
B|------------8---6-----------------------------------8---6--------------------------------|
G|----7---5---------------5-------9---5-------7---5----------------5--5---9-5--5---5---6---|
D|----------------------------7----------------------------------7------7------------------|
A|-----------------------------------------------------------------------------------------|
E|-----------------------------------------------------------------------------------------|

GUITAR (Wah-Wah):

e|----------------------------------------------------------------------------------|
B|--6-----------6---6---5-----------5---5---6-----------6---6---5-----------5---5---|
G|--7-----------7---7---5-----------5---5---7-----------7---7---5-----------5---5---|
D|--7-----------7---7---5-----------5---5---7-----------7---7---5-----------5---5---|
A|----------------------------------------------------------------------------------|
E|----------------------------------------------------------------------------------|

BASS:

G|----------------------------------------------------------------------------------|
D|----------------------------------------------------------------------------------|
A|--5-----------5---5-----------------------5-----------5---5-----------------------|
E|----------------------5-----------5---5-----------------------5-----------5---5---|

GUITAR (Vocals):

e|------------------------------------------------------------------------|
B|------------8---6-----------------------------------8---6---------------|
G|----7---5---------------5-------9---5-------7---5-----------5--9--------|
D|----------------------------7-------------------------------------------|
A|------------------------------------------------------------------------|
E|------------------------------------------------------------------------|

GUITAR (Wah-Wah):

e|----------------------------------------------------------------------------------------------------|
B|--6--#-#-6--#-#-6--#-#-6--#-#-5--#-#-5--#-#-5--#-#-5--#-#-6--#-#-6--#-#-6--#-#-6--#-#-5---5---------|
G|--7--#-#-7--#-#-7--#-#-7--#-#-5--#-#-5--#-#-5--#-#-5--#-#-7--#-#-7--#-#-7--#-#-7--#-#-5---5---------|
D|--7--#-#-7--#-#-7--#-#-7--#-#-5--#-#-5--#-#-5--#-#-5--#-#-7--#-#-7--#-#-7--#-#-7--#-#-5---5---------|
A|----------------------------------------------------------------------------------------------------|
E|----------------------------------------------------------------------------------------------------|

BASS:

G|--------------------------------------------------------------------------------------------|
D|------------------3------------------------------2--------------------3---------------------|
A|--3h5--5--5--3-5----3--5----0h3--3--3-------3-------3-3h5--5--5--3-5----3--5----3---3-------|
E|--------------------------3------------3-5----5-------------------------------3-------------|

 


Part B/Parte B:

GUITAR (Vocals):

e|----------------|------------------------------------------------------------------------------------------|
B|----------------|----10----10--------13----13--------------------------------------------------------------|
G|----------------|--------------------------------12----10----9----------------------9----10----------------|
D|--12----10--12--|-------------------------------------------------------------12---------------12--10--12--|
A|----------------|------------------------------------------------------------------------------------------|
E|----------------|------------------------------------------------------------------------------------------|

GUITAR (Wah-Wah):

e|-----|----------------------------------------------------------------------|
B|--6--|----------------6----------------3------------------6--------------6--|
G|--7--|----------------7----------------4------------------7--------------7--|
D|--7--|----------------7----------------5------------------7--------------7--|
A|-----|----------------------------------------------------------------------|
E|-----|----------------------------------------------------------------------|

GUITAR (Rhythm):

e|-----|----------------------------------------------------------------------------------------------|
B|-----|----------------------------------------------------------------------------------------------|
G|-----|-----------------------------------------------------------------------7----7--x--x--x--x-----|
D|--8--|----8--x--x--x--x--x--8----8--x--x--x--x--x--7----7--x--x--x--x--x--x--7----7--x--x--x--x--8--|
A|--8--|----8--x--x--x--x--x--8----8--x--x--x--x--x--7----7--x--x--x--x--x--x--5----5--x--x--x--x--8--|
E|--6--|----6--x--x--x--x--x--6----6--x--x--x--x--x--5----5--x--x--x--x--x--x----------------------6--|

BASS:

G|-----|--------------------------------------------------------------------5-----7-----5-----7-------|
D|-----|----8-----7-----5----------8-----10-----8---------7-----5-----7-------------------------------|
A|-----|-----------------------------------------------------------------3-----5-----3-----5----------|
E|--6--|-------5-----3-----5--6-------8------6-------5-------3-----5-------------------------------6--|

GUITAR (Vocals):

e|--------------------------10------------------------------------------------------------------|
B|----10----10--------13--------------------------------------------------------10----13----15--|
G|--------------------------------12----10----9----------------------9----10--------------------|
D|-------------------------------------------------------------12-------------------------------|
A|----------------------------------------------------------------------------------------------|
E|----------------------------------------------------------------------------------------------|

GUITAR (Wah-Wah):

e|----------------------------------------------------------------------|
B|----------------6----------------3------------------6--------------6--|
G|----------------7----------------4------------------7--------------7--|
D|----------------7----------------5------------------7--------------7--|
A|----------------------------------------------------------------------|
E|----------------------------------------------------------------------|

GUITAR (Rhythm):

e|----------------------------------------------------------------------------------------------|
B|----------------------------------------------------------------------------------------------|
G|-----------------------------------------------------------------------7----7--x--x--x--x-----|
D|----8--x--x--x--x--x--8----8--x--x--x--x--x--7----7--x--x--x--x--x--x--7----7--x--x--x--x--8--|
A|----8--x--x--x--x--x--8----8--x--x--x--x--x--7----7--x--x--x--x--x--x--5----5--x--x--x--x--8--|
E|----6--x--x--x--x--x--6----6--x--x--x--x--x--5----5--x--x--x--x--x--x----------------------6--|

BASS:

G|---------------------------------------------------------------------5-----7-----9-----10--------|
D|----8-----7-----5-----7-----8-----10-----8---------7-----5-----7---------------------------7-----|
A|------------------------------------------------------------------3-----5-----7-----8------------|

E|-------5-----3-----5-----6-----8------6-------5-------3-----5---------------------------------6--|

GUITAR (Vocals):

e|----------------------------------------------------------------------------------------|
B|----------------18----18------------18-\-15--15-p-13--13----15--------------------------|
G|----------------------------------------------------------------12/14\12----10----------|
D|----------------------------------------------------------------------------------------|
A|----------------------------------------------------------------------------------------|
E|----------------------------------------------------------------------------------------|

GUITAR (Wah-Wah):

e|----------------------------------------------------------------------|
B|----------------6----------------3------------------6--------------6--|
G|----------------7----------------4------------------7--------------7--|
D|----------------7----------------5------------------7--------------7--|
A|----------------------------------------------------------------------|
E|----------------------------------------------------------------------|

GUITAR (Rhythm):

e|----------------------------------------------------------------------------------------------|
B|----------------------------------------------------------------------------------------------|
G|-----------------------------------------------------------------------7----7--x--x--x--x-----|
D|----8--x--x--x--x--x--8----8--x--x--x--x--x--7----7--x--x--x--x--x--x--7----7--x--x--x--x--8--|
A|----8--x--x--x--x--x--8----8--x--x--x--x--x--7----7--x--x--x--x--x--x--5----5--x--x--x--x--8--|
E|----6--x--x--x--x--x--6----6--x--x--x--x--x--5----5--x--x--x--x--x--x----------------------6--|

BASS:

G|--------------------------------------------------------------------5-----7-----5-----7-------|
D|----8-----7-----5----------8-----10-----8---------7-----5-----7-------------------------------|
A|-----------------------------------------------------------------3-----5-----3-----5----------|
E|-------5-----3-----5--6-------8------6-------5-------3-----5-------------------------------6--|

GUITAR (Vocals):

e|-----------------------------------------------------------------|
B|------------------10---------------------------------------------|
G|------------9h10----------12-----12--9----------9----10----------|
D|--------12------------12------------------10---------------------|
A|-----------------------------------------------------------------|
E|-----------------------------------------------------------------|

GUITAR (Wah-Wah):

e|----------------------------------------------------------------------|
B|----------------6----------------3------------------6--------------6--|
G|----------------7----------------4------------------7--------------7--|
D|----------------7----------------5------------------7--------------7--|
A|----------------------------------------------------------------------|
E|----------------------------------------------------------------------|

GUITAR (Rhythm):

e|---------------------------------------------------------------------------------------------|
B|---------------------------------------------------------------------------------------------|
G|-----------------------------------------------------------------------(7)-x--x--x--7--7--7--|
D|----8--x--x--x--x--x--8----8--x--x--x--x--x--7----7--x--x--x--x--x--x--(7)-x--x--x--7--7--7--|
A|----8--x--x--x--x--x--8----8--x--x--x--x--x--7----7--x--x--x--x--x--x--(5)-x--x--x--5--5--5--|
E|----6--x--x--x--x--x--6----6--x--x--x--x--x--5----5--x--x--x--x--x--x------------------------|

BASS:

G|---------------------------------------------------------------------5-----7-----9-----10-------|
D|----8-----7-----5-----7-----8-----10-----8---------7-----5-----7---------------------------7----|
A|------------------------------------------------------------------3-----5-----7-----8-----------|
E|-------5-----3-----5-----6-----8------6-------5-------3-----5-----------------------------------|

The Whims of Fate - Tron544
00:00 / 00:00
DONATE%20BUTTON%20(EN)_edited.png

Re-Intro: x8

GUITAR (Wah-Wah):

e|-----------------------------------------------------------|
B|--6--#-#-6--#-#-6--#-#-6--#-#-5--#-#-5--#-#-5--#-#-5--#-#--|
G|--7--#-#-7--#-#-7--#-#-7--#-#-5--#-#-5--#-#-5--#-#-5--#-#--|
D|--7--#-#-7--#-#-7--#-#-7--#-#-5--#-#-5--#-#-5--#-#-5--#-#--|
A|-----------------------------------------------------------|
E|-----------------------------------------------------------|

BASS:

G|-------------------------------------------------------|
D|------------------3------------------------------2-----|
A|--3h5--5--5--3-5----3--5----0h3--3--3-------3-------3--|
E|--------------------------3------------3-5----5--------|


Part A/Parte A:

GUITAR (Vocals):

e|-----------------------------------------------------------------------------------------|
B|------------8---6-----------------------------------8---6--------------------------------|
G|----7---5---------------5-------9---5-------7---5----------------5--5---9-5--5---5---6---|
D|----------------------------7----------------------------------7------7------------------|
A|-----------------------------------------------------------------------------------------|
E|-----------------------------------------------------------------------------------------|

GUITAR (Wah-Wah):

e|----------------------------------------------------------------------------------|
B|--6-----------6---6---5-----------5---5---6-----------6---6---5-----------5---5---|
G|--7-----------7---7---5-----------5---5---7-----------7---7---5-----------5---5---|
D|--7-----------7---7---5-----------5---5---7-----------7---7---5-----------5---5---|
A|----------------------------------------------------------------------------------|
E|----------------------------------------------------------------------------------|

BASS:

G|----------------------------------------------------------------------------------|
D|----------------------------------------------------------------------------------|
A|--5-----------5---5-----------------------5-----------5---5-----------------------|
E|----------------------5-----------5---5-----------------------5-----------5---5---|

GUITAR (Vocals):

e|------------------------------------------------------------------------|
B|------------8---6-----------------------------------8---6---------------|
G|----7---5---------------5-------9---5-------7---5-----------5--9--------|
D|----------------------------7-------------------------------------------|
A|------------------------------------------------------------------------|
E|------------------------------------------------------------------------|

GUITAR (Wah-Wah):

e|----------------------------------------------------------------------------------------------------|
B|--6--#-#-6--#-#-6--#-#-6--#-#-5--#-#-5--#-#-5--#-#-5--#-#-6--#-#-6--#-#-6--#-#-6--#-#-5---5---------|
G|--7--#-#-7--#-#-7--#-#-7--#-#-5--#-#-5--#-#-5--#-#-5--#-#-7--#-#-7--#-#-7--#-#-7--#-#-5---5---------|
D|--7--#-#-7--#-#-7--#-#-7--#-#-5--#-#-5--#-#-5--#-#-5--#-#-7--#-#-7--#-#-7--#-#-7--#-#-5---5---------|
A|----------------------------------------------------------------------------------------------------|
E|----------------------------------------------------------------------------------------------------|

BASS:

G|--------------------------------------------------------------------------------------------|
D|------------------3------------------------------2--------------------3---------------------|
A|--3h5--5--5--3-5----3--5----0h3--3--3-------3-------3-3h5--5--5--3-5----3--5----3---3-------|
E|--------------------------3------------3-5----5-------------------------------3-------------|

 


Part B/Parte B:

GUITAR (Vocals):

e|----------------|------------------------------------------------------------------------------------------|
B|----------------|----10----10--------13----13--------------------------------------------------------------|
G|----------------|--------------------------------12----10----9----------------------9----10----------------|
D|--12----10--12--|-------------------------------------------------------------12---------------12--10--12--|
A|----------------|------------------------------------------------------------------------------------------|
E|----------------|------------------------------------------------------------------------------------------|

GUITAR (Wah-Wah):

e|-----|----------------------------------------------------------------------|
B|--6--|----------------6----------------3------------------6--------------6--|
G|--7--|----------------7----------------4------------------7--------------7--|
D|--7--|----------------7----------------5------------------7--------------7--|
A|-----|----------------------------------------------------------------------|
E|-----|----------------------------------------------------------------------|

BASS:

G|-----|--------------------------------------------------------------------5-----7-----5-----7-------|
D|-----|----8-----7-----5----------8-----10-----8---------7-----5-----7-------------------------------|
A|-----|-----------------------------------------------------------------3-----5-----3-----5----------|
E|--6--|-------5-----3-----5--6-------8------6-------5-------3-----5-------------------------------6--|

GUITAR (Vocals):

e|--------------------------10------------------------------------------------------------|
B|----10----10--------13------------------------------------------------------------------|
G|--------------------------------12----10----9----------------------9----10--------------|
D|-------------------------------------------------------------12-----------------10--12--|
A|----------------------------------------------------------------------------------------|
E|----------------------------------------------------------------------------------------|

GUITAR (Wah-Wah):

e|----------------------------------------------------------------------|
B|----------------6----------------3------------------6--------------6--|
G|----------------7----------------4------------------7--------------7--|
D|----------------7----------------5------------------7--------------7--|
A|----------------------------------------------------------------------|
E|----------------------------------------------------------------------|

BASS:

G|---------------------------------------------------------------------5-----7-----9-----10--------|
D|----8-----7-----5-----7-----8-----10-----8---------7-----5-----7---------------------------7-----|
A|------------------------------------------------------------------3-----5-----7-----8------------|
E|-------5-----3-----5-----6-----8------6-------5-------3-----5---------------------------------6--|

GUITAR (Vocals):

e|------------------------------------------------------------------------------------------|
B|----10----10--------13----13--------------------------------------------------------------|
G|--------------------------------12----10----9----------------------9----10----------------|
D|-------------------------------------------------------------12---------------12--10--12--|
A|------------------------------------------------------------------------------------------|
E|------------------------------------------------------------------------------------------|

GUITAR (Wah-Wah):

e|----------------------------------------------------------------------|
B|----------------6----------------3------------------6--------------6--|
G|----------------7----------------4------------------7--------------7--|
D|----------------7----------------5------------------7--------------7--|
A|----------------------------------------------------------------------|
E|----------------------------------------------------------------------|

GUITAR (Rhythm):

e|-----|----------------------------------------------------------------------------------------------|
B|-----|----------------------------------------------------------------------------------------------|
G|-----|-----------------------------------------------------------------------7----7--x--x--x--x-----|
D|--8--|----8--x--x--x--x--x--8----8--x--x--x--x--x--7----7--x--x--x--x--x--x--7----7--x--x--x--x--8--|
A|--8--|----8--x--x--x--x--x--8----8--x--x--x--x--x--7----7--x--x--x--x--x--x--5----5--x--x--x--x--8--|
E|--6--|----6--x--x--x--x--x--6----6--x--x--x--x--x--5----5--x--x--x--x--x--x----------------------6--|

BASS:

G|--------------------------------------------------------------------5-----7-----5-----7-------|
D|----8-----7-----5----------8-----10-----8---------7-----5-----7-------------------------------|
A|-----------------------------------------------------------------3-----5-----3-----5----------|
E|-------5-----3-----5--6-------8------6-------5-------3-----5-------------------------------6--|

GUITAR (Vocals):

e|--------------------------10------------------------------------------------------------------|
B|----10----10--------13--------------------------------------------------------10----13----15--|
G|--------------------------------12----10----9----------------------9----10--------------------|
D|-------------------------------------------------------------12-------------------------------|
A|----------------------------------------------------------------------------------------------|
E|----------------------------------------------------------------------------------------------|

GUITAR (Wah-Wah):

e|----------------------------------------------------------------------|
B|----------------6----------------3------------------6--------------6--|
G|----------------7----------------4------------------7--------------7--|
D|----------------7----------------5------------------7--------------7--|
A|----------------------------------------------------------------------|
E|----------------------------------------------------------------------|

GUITAR (Rhythm):

e|----------------------------------------------------------------------------------------------|
B|----------------------------------------------------------------------------------------------|
G|-----------------------------------------------------------------------7----7--x--x--x--x-----|
D|----8--x--x--x--x--x--8----8--x--x--x--x--x--7----7--x--x--x--x--x--x--7----7--x--x--x--x--8--|
A|----8--x--x--x--x--x--8----8--x--x--x--x--x--7----7--x--x--x--x--x--x--5----5--x--x--x--x--8--|
E|----6--x--x--x--x--x--6----6--x--x--x--x--x--5----5--x--x--x--x--x--x----------------------6--|

BASS:

G|---------------------------------------------------------------------5-----7-----9-----10--------|
D|----8-----7-----5-----7-----8-----10-----8---------7-----5-----7---------------------------7-----|
A|------------------------------------------------------------------3-----5-----7-----8------------|
E|-------5-----3-----5-----6-----8------6-------5-------3-----5---------------------------------6--|

 


GUITAR (Wah-Wah):

e|----------------------------------------------------------------------|
B|----------------6----------------3------------------6--------------6--|
G|----------------7----------------4------------------7--------------7--|
D|----------------7----------------5------------------7--------------7--|
A|----------------------------------------------------------------------|
E|----------------------------------------------------------------------|

GUITAR (Rhythm):

e|----------------------------------------------------------------------------------------------|
B|----------------------------------------------------------------------------------------------|
G|-----------------------------------------------------------------------7----7--x--x--x--x-----|
D|----8--x--x--x--x--x--8----8--x--x--x--x--x--7----7--x--x--x--x--x--x--7----7--x--x--x--x--8--|
A|----8--x--x--x--x--x--8----8--x--x--x--x--x--7----7--x--x--x--x--x--x--5----5--x--x--x--x--8--|
E|----6--x--x--x--x--x--6----6--x--x--x--x--x--5----5--x--x--x--x--x--x----------------------6--|

BASS:

G|--------------------------------------------------------------------5-----7-----5-----7-------|
D|----8-----7-----5----------8-----10-----8---------7-----5-----7-------------------------------|
A|-----------------------------------------------------------------3-----5-----3-----5----------|
E|-------5-----3-----5--6-------8------6-------5-------3-----5-------------------------------6--|

GUITAR (Vocals):

e|--------------------------10------------------------------------------------------------------|
B|----10----10--------13--------------------------------------------------------10----13----15--|
G|--------------------------------12----10----9----------------------9----10--------------------|
D|-------------------------------------------------------------12-------------------------------|
A|----------------------------------------------------------------------------------------------|
E|----------------------------------------------------------------------------------------------|

GUITAR (Wah-Wah):

e|----------------------------------------------------------------------|
B|----------------6----------------3------------------6--------------6--|
G|----------------7----------------4------------------7--------------7--|
D|----------------7----------------5------------------7--------------7--|
A|----------------------------------------------------------------------|
E|----------------------------------------------------------------------|

GUITAR (Rhythm):

e|----------------------------------------------------------------------------------------------|
B|----------------------------------------------------------------------------------------------|
G|-----------------------------------------------------------------------7----7--x--x--x--x-----|
D|----8--x--x--x--x--x--8----8--x--x--x--x--x--7----7--x--x--x--x--x--x--7----7--x--x--x--x--8--|
A|----8--x--x--x--x--x--8----8--x--x--x--x--x--7----7--x--x--x--x--x--x--5----5--x--x--x--x--8--|
E|----6--x--x--x--x--x--6----6--x--x--x--x--x--5----5--x--x--x--x--x--x----------------------6--|

BASS:

G|---------------------------------------------------------------------5-----7-----9-----10--------|
D|----8-----7-----5-----7-----8-----10-----8---------7-----5-----7---------------------------7-----|
A|------------------------------------------------------------------3-----5-----7-----8------------|
E|-------5-----3-----5-----6-----8------6-------5-------3-----5---------------------------------6--|

GUITAR (Wah-Wah):

e|----------------------------------------------------------------------|
B|----------------6----------------3------------------6--------------6--|
G|----------------7----------------4------------------7--------------7--|
D|----------------7----------------5------------------7--------------7--|
A|----------------------------------------------------------------------|
E|----------------------------------------------------------------------|

GUITAR (Rhythm):

e|----------------------------------------------------------------------------------------------|
B|----------------------------------------------------------------------------------------------|
G|-----------------------------------------------------------------------7----7--x--x--x--x-----|
D|----8--x--x--x--x--x--8----8--x--x--x--x--x--7----7--x--x--x--x--x--x--7----7--x--x--x--x--8--|
A|----8--x--x--x--x--x--8----8--x--x--x--x--x--7----7--x--x--x--x--x--x--5----5--x--x--x--x--8--|
E|----6--x--x--x--x--x--6----6--x--x--x--x--x--5----5--x--x--x--x--x--x----------------------6--|

BASS:

G|--------------------------------------------------------------------5-----7-----5-----7-------|
D|----8-----7-----5----------8-----10-----8---------7-----5-----7-------------------------------|
A|-----------------------------------------------------------------3-----5-----3-----5----------|
E|-------5-----3-----5--6-------8------6-------5-------3-----5-------------------------------6--|

GUITAR (Wah-Wah):

e|----------------------------------------------------------------------|
B|----------------6----------------3------------------6--------------6--|
G|----------------7----------------4------------------7--------------7--|
D|----------------7----------------5------------------7--------------7--|
A|----------------------------------------------------------------------|
E|----------------------------------------------------------------------|

GUITAR (Rhythm):

e|---------------------------------------------------------------------------------------------|
B|---------------------------------------------------------------------------------------------|
G|-----------------------------------------------------------------------(7)-x--x--x--7--7--7--|
D|----8--x--x--x--x--x--8----8--x--x--x--x--x--7----7--x--x--x--x--x--x--(7)-x--x--x--7--7--7--|
A|----8--x--x--x--x--x--8----8--x--x--x--x--x--7----7--x--x--x--x--x--x--(5)-x--x--x--5--5--5--|
E|----6--x--x--x--x--x--6----6--x--x--x--x--x--5----5--x--x--x--x--x--x------------------------|

BASS:

G|---------------------------------------------------------------------5-----7-----9-----10-------|
D|----8-----7-----5-----7-----8-----10-----8---------7-----5-----7---------------------------7----|
A|------------------------------------------------------------------3-----5-----7-----8-----------|
E|-------5-----3-----5-----6-----8------6-------5-------3-----5-----------------------------------|

©2015 by Fefe - Tron544

Sigueme en:

  • YouTube - White Circle
  • Facebook - White Circle
  • Instagram - White Circle
  • Twitter - White Circle
This site was designed with the
.com
website builder. Create your website today.
Start Now