THE ROCK CITY BOY

FAIRY TAIL

TABS ~ By Fefe (Tron544)

 

Verse/Estribillo:

 

GUITAR 1:

 

e|-----------------------------------|

B|-----------------------------------|

G|-----------------------------------|

D|-----9--9--7--6--6-----------------|

A|-----------------------5--7--5-----|

E|--7-----------------7-----------7--|

 

GUITAR 2:

 

e|--------------------------------------|

B|--------------------------------------|

G|--------7--7--7--7--7-----------------|

D|--9--9-----------------7--9--9--9-----|

A|-----------------------------------9--|

E|--------------------------------------|

GUITAR 1:

 

e|-----------------------------------|

B|-----------------------------------|

G|-----------------------------------|

D|-----9--9--7--6--6-----------------|

A|-----------------------5--7--5-----|

E|--7-----------------7-----------7--|

 

GUITAR 2:

 

e|--------------------------------------------|

B|--------------------------------------------|

G|-----7--7--7--7--7--------------------------|

D|--7-----------------7--7--9--9--9--9--9-----|

A|-----------------------------------------9--|

E|--------------------------------------------|

 

GUITAR 1:

 

e|---------------------------------------------------------------------|

B|---------------------------------------------------------------------|

G|---------------------------------------------------------------------|

D|-----9--9--7--6--6---------------------9--9--7--6--6-----------------|

A|-----------------------5--7--5---------------------------5--7--5-----|

E|--7-----------------7-----------7---7-----------------7-----------7--|

 

GUITAR 2:

 

e|------------------------------------------------------------------|

B|------------------------------------------------------------------|

G|-----7--7--7--7------------------------7--7--7--7--7--------------|

D|--9--------------7--9--9--9--9---7--7-----------------7--7--9--9--|

A|------------------------------------------------------------------|

E|------------------------------------------------------------------|

 

 

Pre-Chorus/Pre-Estribillo:

 

GUITAR 1:

 

e|---------------------------------------------------------------------|

B|---------------------------------------------------------------------|

G|---------------------------------------------------------------------|

D|-----9--9--7--6--6---------------------9--9--7--6--6-----------------|

A|-----------------------5--7--5---------------------------5--7--5-----|

E|--7-----------------7-----------7---7-----------------7-----------7--|

 

GUITAR 2:

 

e|--------|------------------------------------------------------|

B|--------|------------------------------------------------------|

G|--------|--7---------7-----------------------------------------|

D|--7--9--|------7--9------7--9--9--9--9---7--9--9--9--9---7--9--|

A|--------|------------------------------------------------------|

E|--------|------------------------------------------------------|

 

GUITAR 3:

 

e|--2--2--2---0--0--0--0---2--2--2---0--0--0--0--|

B|--3--3--3---0--0--0--0---3--3--3---0--0--0--0--|

G|--4--4--4---1--1--1--1---4--4--4---1--1--1--1--|

D|--4--4--4---2--2--2--2---4--4--4---2--2--2--2--|

A|--2--2--2---2--2--2--2---2--2--2---2--2--2--2--|

E|------------0--0--0--0-------------0--0--0--0--|

 

GUITAR 1:

 

e|------------------------------------------------------|

B|------------------------------------------------------|

G|------------------------------------------------------|

D|-----9--9--7--6--6---------------------9--9--7--6--6--|

A|-----------------------5--7--5------------------------|

E|--7-----------------7-----------7---7-----------------|

 

GUITAR 2:

 

e|----------------------------7---------------7--|

B|-----------------------------------------------|

G|--7---------7----------------------------------|

D|------7--9------7--9--9--9------7--9--9--9-----|

A|-----------------------------------------------|

E|-----------------------------------------------|

 

GUITAR 3:

 

e|--2--2--2---0--0--0--0---2--2--2---0--0--|

B|--3--3--3---0--0--0--0---3--3--3---0--0--|

G|--4--4--4---1--1--1--1---4--4--4---1--1--|

D|--4--4--4---2--2--2--2---4--4--4---2--2--|

A|--2--2--2---2--2--2--2---2--2--2---2--2--|

E|------------0--0--0--0-------------0--0--|

The Rock City Boy - Tron544
00:00 / 00:00
DONATE%20BUTTON%20(EN)_edited.png

Chorus/Estribillo:

 

GUITAR 1:

 

e|--3--3--3--3---0--0--0--0---2--2--2--2---0--0--0--0--|

B|--3--3--3--3---2--2--2--2---3--3--3--3---0--0--0--0--|

G|--0--0--0--0---2--2--2--2---4--4--4--4---1--1--1--1--|

D|--0--0--0--0---2--2--2--2---4--4--4--4---2--2--2--2--|

A|--2--2--2--2---0--0--0--0---2--2--2--2---2--2--2--2--|

E|--3--3--3--3-----------------------------0--0--0--0--|

 

GUITAR 2:

 

e|-----------|--------------------------------------------------------------------------|

B|-----------|--7--7--7--7--------------------------7-----------------7--------7--------|

G|-----7--9--|--------------9--7--9--7--9--7--9--7--------------7--------9--7-----9--7--|

D|--7--------|-----------------------------------------9--9--9-----9--------------------|

A|-----------|--------------------------------------------------------------------------|

E|-----------|--------------------------------------------------------------------------|

 

GUITAR 1:

 

e|--3--3--3--3---2--2--2--2---2--2--2--2---0--0--0--0--|

B|--3--3--3--3---2--2--2--2---3--3--3--3---0--0--0--0--|

G|--0--0--0--0---2--2--2--2---4--4--4--4---1--1--1--1--|

D|--0--0--0--0---4--4--4--4---4--4--4--4---2--2--2--2--|

A|--2--2--2--2---4--4--4--4---2--2--2--2---2--2--2--2--|

E|--3--3--3--3---2--2--2--2----------------0--0--0--0--|

 

GUITAR 2:

 

e|-----------7-------------------------------------------------------------|

B|--7--7--7-----7---------------------------------7--------7---------------|

G|-----------------9--7--9--7---------------7--7-----9--7-----9------7--9--|

D|------------------------------9--7--9--9------------------------7--------|

A|-------------------------------------------------------------------------|

E|-------------------------------------------------------------------------|

 

GUITAR 1:

 

e|--3--3--3--3---0--0--0--0---2--2--2--2---0--0--0--0--|

B|--3--3--3--3---2--2--2--2---3--3--3--3---0--0--0--0--|

G|--0--0--0--0---2--2--2--2---4--4--4--4---1--1--1--1--|

D|--0--0--0--0---2--2--2--2---4--4--4--4---2--2--2--2--|

A|--2--2--2--2---0--0--0--0---2--2--2--2---2--2--2--2--|

E|--3--3--3--3-----------------------------0--0--0--0--|

 

GUITAR 2:

 

e|--------------------------------------------------------------------------|

B|--7--7--7--7--------------------------7-----------------7--------7--------|

G|--------------9--7--9--7--9--7--9--7--------------7--9-----9--7-----9--7--|

D|-----------------------------------------9--9--9--------------------------|

A|--------------------------------------------------------------------------|

E|--------------------------------------------------------------------------|

 

GUITAR 1:

 

e|--3--3--3--3---2--2--2--2---7---5---7--|--7---9----5--|

B|--3--3--3--3---2--2--2--2---7---7---9--|--7---10---7--|

G|--0--0--0--0---2--2--2--2---7---7---9--|--7---11---7--|

D|--0--0--0--0---4--4--4--4---9---7---9--|--9---11---7--|

A|--2--2--2--2---4--4--4--4---9---5---7--|--9---9----5--|

E|--3--3--3--3---2--2--2--2---7----------|--7-----------|

 

GUITAR 2:

 

e|-----------7---------------------------------------------------|

B|--7--7--7-----7------------------------------------------7-----|

G|-----------------9--7--9--7------------7--7-/-9-------------7--|

D|------------------------------9--7--9--------------7--9--------|

A|---------------------------------------------------------------|

E|---------------------------------------------------------------|

 

 

Bridge/Puente:

 

GUITAR 1:

 

  /~~~~~~~~~~~~~~~~~~~~~~( REPEAT x2 / REPITE x2 )~~~~~~~~~~~~~~~~~~~~~~~\

e|------------------------------------------------------------------------|

B|------------------------------------------------------------------------|

G|------------------------------------------------------------------------|

D|--9--7---------------------------------9--7-----------------------------|

A|--------9--8--7-------------7----------------9--8--7-------------7------|

E|-----------------10--7--10-----10--7------------------10--7--10-----10--|

 

GUITAR 2:

 

e|---------------------------------------|

B|---------------------------------------|

G|--------7------------------------------|

D|--7--9---------7--9--9--9--9--9--9--9--|

A|---------------------------------------|

E|---------------------------------------|

 

 

Outro:

 

GUITAR 1:

 

e|------------------------------------------------------------------------|

B|------------------------------------------------------------------------|

G|------------------------------------------------------------------------|

D|--9--7---------------------------------9--7-----------------------------|

A|--------9--8--7-------------7----------------9--8--7-------------7------|

E|-----------------10--7--10-----10--7------------------10--7--10-----10--|

 

GUITAR 2:

 

e|------------------------------|

B|------------------------------|

G|--------7---------------------|

D|--7--9---------7--9--9--9--9--|

A|------------------------------|

E|------------------------------|

 

GUITAR 3:

 

e|--2--2--2---0--0--0--0---2--2--2---0--0--0--0--|

B|--3--3--3---0--0--0--0---3--3--3---0--0--0--0--|

G|--4--4--4---1--1--1--1---4--4--4---1--1--1--1--|

D|--4--4--4---2--2--2--2---4--4--4---2--2--2--2--|

A|--2--2--2---2--2--2--2---2--2--2---2--2--2--2--|

E|------------0--0--0--0-------------0--0--0--0--|

 

GUITAR 1:

 

e|--------------------------------------------------------------------------|

B|--------------------------------------------------------------------------|

G|--------------------------------------------------------------------------|

D|--9--7---------------------------------9--7-------------------------------|

A|--------9--8--7-------------7----------------9--8--7-------------7--8--9--|

E|-----------------10--7--10-----10--7------------------10--7--10-----------|

 

GUITAR 2:

 

e|------------------------------|

B|------------------------------|

G|--------7---------------------|

D|--7--9---------7--9--9--9--9--|

A|------------------------------|

E|------------------------------|

 

GUITAR 3:

 

e|--2--2--2---0--0--0--0---2--2--2---0--0--0--0--|

B|--3--3--3---0--0--0--0---3--3--3---0--0--0--0--|

G|--4--4--4---1--1--1--1---4--4--4---1--1--1--1--|

D|--4--4--4---2--2--2--2---4--4--4---2--2--2--2--|

A|--2--2--2---2--2--2--2---2--2--2---2--2--2--2--|

E|------------0--0--0--0-------------0--0--0--0--|

©2015 by Fefe - Tron544

Sigueme en:

  • YouTube - White Circle
  • Facebook - White Circle
  • Instagram - White Circle
  • Twitter - White Circle
This site was designed with the
.com
website builder. Create your website today.
Start Now