~ THE MERMAID ~

TABLATURAS ~ By Fefe - Tron544
 

Intro:

e|------11--13--13-b--13--11------|
B|--13------------------------13--|
G|--------------------------------|
D|--------------------------------|
A|--------------------------------|
E|--------------------------------|

e|----------11-----------10--------------------------|
B|------13------13-----------14--13--11--------------|
G|--13---------------12------------------13--11--12--|
D|---------------------------------------------------|
A|---------------------------------------------------|
E|---------------------------------------------------|

e|------11--13--13-b--13--11----------8--11--11-b---8-----------------------|
B|--13------------------------13---8-------------------11--11-b---8---------|
G|-------------------------------------------------------------------10--8--|
D|--------------------------------------------------------------------------|
A|--------------------------------------------------------------------------|
E|--------------------------------------------------------------------------|

e|------11--13--13-b--13--11---------------11-----------10--------------------------|
B|--13------------------------13-------13------13-----------14--13--11--------------|
G|---------------------------------13---------------12------------------13--11--12--|
D|----------------------------------------------------------------------------------|
A|----------------------------------------------------------------------------------|
E|----------------------------------------------------------------------------------|

e|------11--13--13-b--13--11----------------8--11---8-----------------------|
B|--13------------------------13---------8-------------11--11-b---8---------|
G|---------------------------------10-b------------------------------10--8--|
D|--------------------------------------------------------------------------|
A|--------------------------------------------------------------------------|
E|--------------------------------------------------------------------------|

 


First Verse/Primera Estrofa: x2

e|---------------------------------------------------|
B|-----9-----9-----9-----9------8-----8-----8-----8--|
G|--8-----8-----8-----8------8-----8-----8-----8-----|
D|---------------------------------------------------|
A|---------------------------------------------------|
E|---------------------------------------------------|


First Pre-Chorus/Primer Pre-Estribillo:

e|-----8-----------10----------------11----b-13-r-p-11------11-----------------------|
B|------------------------------------------------------13-------13--12--11----------|
G|--8------8-/-10-------10--10-/-12------------------------------------------13--12--|
D|-----------------------------------------------------------------------------------|
A|-----------------------------------------------------------------------------------|
E|-----------------------------------------------------------------------------------|

e|-----8-----------10----------------11--------11--13--13-b--13--11---16-15-13-13-15-13--------------|
B|-----------------------------------------13-------------------------------------------15-16-15-13--|
G|--8------8-/-10-------10--10-/-12------------------------------------------------------------------|
D|---------------------------------------------------------------------------------------------------|
A|---------------------------------------------------------------------------------------------------|
E|---------------------------------------------------------------------------------------------------|

 


Chorus/Estribillo:

e|--16--16--16---15--15-------------------------------11--------11-------------------------|
B|--16--16--16---15--15---16--15---13--12--13---11-b------11-b------8----------------------|
G|------------------------15--15---12--12--12--------------------------8--10-b-r-10--8--9--|
D|-----------------------------------------------------------------------------------------|
A|-----------------------------------------------------------------------------------------|
E|-----------------------------------------------------------------------------------------|

e|--------------------------------------------------------------------------|
B|-----------------------------------10-b-r--8--10--8------8--10--8------8--|
G|-------8--10--10-/-11--10--8-------10-b-r--8--10--8--10--8--10--8--10--8--|
D|--10--------------------------10---------------------10------------10-----|
A|--------------------------------------------------------------------------|
E|--------------------------------------------------------------------------|

e|--16--16--16---15--15-----------------------------18--18--18---16--15------------------------|
B|--16--16--16---15--15---16--15---13--12--13--12---18--18--18---16--15---16--15--15--16---13--|
G|------------------------15--15---12--12--12--12-------------------------15--15--15--15---12--|
D|---------------------------------------------------------------------------------------------|
A|---------------------------------------------------------------------------------------------|
E|---------------------------------------------------------------------------------------------|

e|------------------------------------------------------------|
B|------------------------------------------------------------|
G|-------8--10--10-/-11--10--8--------------------------------|
D|--10--------------------------10----------------------------|
A|-----------------------------------8--8--8--8--8--8--8--10--|
E|------------------------------------------------------------|

 


Solo:

e|--------16--------16--|--16-b---16---15---------------------------------13-15-16-15-13--------------------|
B|--16-b------16-b------|------------------18--16--15------------------13----------------16-15--13--15--16--|
G|----------------------|-------------------------------13-12-11-12-13--------------------------------------|
D|----------------------|-----------------------------------------------------------------------------------|
A|----------------------|-----------------------------------------------------------------------------------|
E|----------------------|-----------------------------------------------------------------------------------|

e|--------------10--11--10-----------------------------------------------------------------|
B|------12--13--------------12--13----------------10-/-11--10-/-11--9--8--6---8-/-9--9--8--|
G|----------------------------------12---\-8-----------------------------------------------|
D|--10----------------------------------------8---7--/-8---7--/-8---6--5--3---5-/-6--6--5--|
A|-----------------------------------------------------------------------------------------|
E|-----------------------------------------------------------------------------------------|

e|--13-b-13-b-13-b--13-p-11------11-------------------------------------------|
B|---------------------------13------13--11-h-13-p-11-------------------------|
G|-----------------------------------------------------12-\-10--8------8-/-9--|
D|-----------------------------------------------------------------10---------|
A|----------------------------------------------------------------------------|
E|----------------------------------------------------------------------------|

e|------------------------------13--13--10--11--|
B|----------------------11--11--11--11--11--11--|
G|----------8--10-/-12--------------------------|
D|--8-/-10--------------------------------------|
A|----------------------------------------------|
E|----------------------------------------------|

e|--11--10--9--8--------------------------------15--16--15---18-b---18--17--16--15------------------|
B|----------------9--8------------------15--16--------------------------------------18------15--16--|
G|----------------------10--8---15--16--------------------------------------------------17----------|
D|--------------------------------------------------------------------------------------------------|
A|--------------------------------------------------------------------------------------------------|
E|--------------------------------------------------------------------------------------------------|

 


Second Verse/Segunda Estrofa:

e|-----------------------------------------------------------------------10-h-11-p-10----------|
B|--9----8-----------------------------------------------8-h-9-p-8---------------------12--13--|
G|--8----8--------------8--10--10-b--10--8------------8-------------11-------------------------|
D|--------------8-/-10------------------------8-/-10-------------------------------------------|
A|---------------------------------------------------------------------------------------------|
E|---------------------------------------------------------------------------------------------|

 


Second Pre-Chorus/Segundo Pre-Estribillo:

e|--------------------------------------------------------------------------------------------|
B|--13---#--#--15---#--#--16--#--18--#--#--16---#--#--15---#--15--#--#--13---#--11--#--#--11--|
G|--12---#--#--15---#--#--15--#--17--#--#--15---#--#--15---#--15--#--#--12---#--12--#--#--12--|
D|--------------------------------------------------------------------------------------------|
A|--------------------------------------------------------------------------------------------|
E|--------------------------------------------------------------------------------------------|

e|--------------------------------------------------11--13--13-b--13--11---16-15-13----15-13--------------|
B|--13---#--#--15---#--#--16--#--18--#--#--18---13----------------------------------16-------16-15-13-15--|
G|--12---#--#--15---#--#--15--#--17--#--#--17-------------------------------------------------------------|
D|--------------------------------------------------------------------------------------------------------|
A|--------------------------------------------------------------------------------------------------------|
E|--------------------------------------------------------------------------------------------------------|


Chorus/Estribillo:

e|--16--16--16---15--15-------------------------------11--------11-------------------------|
B|--16--16--16---15--15---16--15---13--12--13---11-b------11-b------8----------------------|
G|------------------------15--15---12--12--12--------------------------8--10-b-r-10--8--9--|
D|-----------------------------------------------------------------------------------------|
A|-----------------------------------------------------------------------------------------|
E|-----------------------------------------------------------------------------------------|

e|--------------------------------------------------------------------------|
B|-----------------------------------10-b-r--8--10--8------8--10--8------8--|
G|-------8--10--10-/-11--10--8-------10-b-r--8--10--8--10--8--10--8--10--8--|
D|--10--------------------------10---------------------10------------10-----|
A|--------------------------------------------------------------------------|
E|--------------------------------------------------------------------------|

e|--16--16--16---15--15-----------------------------18--18--18---16--15------------------------|
B|--16--16--16---15--15---16--15---13--12--13--12---18--18--18---16--15---16--15--15--16---13--|
G|------------------------15--15---12--12--12--12-------------------------15--15--15--15---12--|
D|---------------------------------------------------------------------------------------------|
A|---------------------------------------------------------------------------------------------|
E|---------------------------------------------------------------------------------------------|

e|------------------------------------------------------------|
B|------------------------------------------------------------|
G|-------8--10--10-/-11--10--8--------------------------------|
D|--10--------------------------10----------------------------|
A|-----------------------------------8--8--8--8--8--8--8--10--|
E|------------------------------------------------------------|

 


Bridge/Puente:

e|--------------------------------------------------------------------------------11--13-p-11--|
B|------------------------------------------------------------------11---11-/-13---------------|
G|----------8--10--10-b--10--8-------------------8--8--10--10-/-12-----------------------------|
D|--8-/-10----------------------10---8-h-10-p-8------------------------------------------------|
A|---------------------------------------------------------------------------------------------|
E|---------------------------------------------------------------------------------------------|

e|--13-b--11------11------10-h-11-p-10--------------------------------------------------|
B|------------13------13----------------11-\-9-p-8--------------------------------8--9--|
G|--------------------------------------------------8-\-7---7-h-8-p-7------8--10--------|
D|---------------------------------------------------------------------8----------------|
A|--------------------------------------------------------------------------------------|
E|--------------------------------------------------------------------------------------|

e|------11--10------8---------------------------------------------------------------------------------------|
B|--8-----------11-----9--8---------8-----------------------------------------------------------------------|
G|---------------------------8--7------10--8--7--------8---8---8---8---7--7--7--7--7------------------------|
D|-----------------------------------------------8--9--10--10--10--10--8--8--8--8--8---10--10--8------------|
A|------------------------------------------------------------------------------------------------10--8--6--|
E|----------------------------------------------------------------------------------------------------------|

 


Last Chorus/Ultimo Estribillo:

e|--16---15-------------------------------11--------11-------------------------|
B|--16---15---16--15---13--12--13---11-b------11-b------8----------------------|
G|------------15--15---12--12--12--------------------------8--10-b-r-10--8--9--|
D|-----------------------------------------------------------------------------|
A|-----------------------------------------------------------------------------|
E|-----------------------------------------------------------------------------|

e|----------------------------------|
B|----------------------------------|
G|-------8--10--10-/-11--10--8------|
D|--10--------------------------10--|
A|----------------------------------|
E|----------------------------------|

e|--------------------------------------------------------------------------------|
B|----------------------------------------------11-p-8----------------------------|
G|-------------------------------8-h-10-p-8------------10-p-8-10-p-8-10-p-8----8--|
D|---------8-h-10-p-8-----8-h-10------------10------------------------------10----|
A|--8-h-10------------10----------------------------------------------------------|
E|--------------------------------------------------------------------------------|

e|--16--16--16---15--15-----------------------------18--18--18---16--15------------------------|
B|--16--16--16---15--15---16--15---13--12--13--12---18--18--18---16--15---16--15--15--16---13--|
G|------------------------15--15---12--12--12--12-------------------------15--15--15--15---12--|
D|---------------------------------------------------------------------------------------------|
A|---------------------------------------------------------------------------------------------|
E|---------------------------------------------------------------------------------------------|

e|-------------------------------------------------------------------|
B|-------------------------------------------------------------------|
G|-------8--10--10-/-11--10--8---------------------------------------|
D|--10--------------------------10--------------------------------9--|
A|-----------------------------------8--8--8--8--8--8--8--10---------|
E|-------------------------------------------------------------------|

 


Outro:

e|------11--13--13-b--13--11---------------11-----------10--------------------------|
B|--13------------------------13-------13------13-----------14--13--11--------------|
G|---------------------------------13---------------12------------------13--11--12--|
D|----------------------------------------------------------------------------------|
A|----------------------------------------------------------------------------------|
E|----------------------------------------------------------------------------------|

e|------11--13--13-b--13--11----------------8--11---8-----------------------|
B|--13------------------------13---------8-------------11--11-b---8---------|
G|---------------------------------10-b------------------------------10--8--|
D|--------------------------------------------------------------------------|
A|--------------------------------------------------------------------------|
E|--------------------------------------------------------------------------|

 


Outro Solo:

e|--13-b---(15)-(15)-(15)-(15)-(15)-(15)-(15)-r-p-11------11-----------------------------------|
B|----------------------------------------------------13-------10-b-r--8--10--8------8------8--|
G|-------------------------------------------------------------10-b-r--8--10--8--10--8--10--8--|
D|-------------------------------------------------------------------------------10-----10-----|
A|---------------------------------------------------------------------------------------------|
E|---------------------------------------------------------------------------------------------|

e|--------------------------13-15-16--16-/-18--16--15-------------------------------------------------------|
B|-----------------13-15-16----------------------------16----------------------------------8----------------|
G|--13-12-12-13-15----------------------------------------------------------------------------10--8---------|
D|----------------------------------------------------------------------------------9--10------------9--10--|
A|---------------------------------------------------------8--8--8--8--8--8--8--10--------------------------|
E|----------------------------------------------------------------------------------------------------------|

The Mermaid - Tron544
00:00 / 00:00

©2019 by Fefe - Tron544

Sigueme en:

  • YouTube - White Circle
  • Facebook - White Circle
  • Instagram - White Circle
  • Twitter - White Circle
This site was designed with the
.com
website builder. Create your website today.
Start Now