THE LAST ELEMENT

DIGIMON FRONTIER

TABS ~ By Fefe (Tron544)

 

Intro:

 

e|-----------------------------------------------------------------|

B|--------------b20----18-h20-p18------17--18--20--17--------------|

G|--19--17--19-----------------------------------------17--19--17--|

D|-----------------------------------------------------------------|

A|-----------------------------------------------------------------|

E|-----------------------------------------------------------------|

 

e|------------------------------15--17--18--b20r--17-h18-p17--|

B|--15--------------15--17------------------------------------|

G|------17--14--17--------------------------------------------|

D|------------------------------------------------------------|

A|------------------------------------------------------------|

E|------------------------------------------------------------|

 

e|---------------------------------------------|

B|--------------b20----20--18--17--18--20------|

G|--19--17--19-----------------------------17--|

D|---------------------------------------------|

A|---------------------------------------------|

E|---------------------------------------------|

e|---------------------------------18--20--18--|

B|--------------b20----20--20--18--------------|

G|--19--17--19---------------------------------|

D|---------------------------------------------|

A|---------------------------------------------|

E|---------------------------------------------|

 

e|--17--20--18--17--20--18--17--20--18------17--|

B|----------------------------------------------|

G|----------------------------------------------|

D|----------------------------------------------|

A|----------------------------------------------|

E|----------------------------------------------|

 

 

Verse/Estrofa:

 

e|-------------------------------------------------------------------------------------------|

B|-------------------------------------------------------------------------------------------|

G|--7--7--7------------------7--7--7--9--10--9----------7--7--7------7------7--10--9------7--|

D|-----------10--10--10-------------------------10---------------10-----10------------10-----|

A|-------------------------------------------------------------------------------------------|

E|-------------------------------------------------------------------------------------------|

 

e|--------------------------------------------------------------------------------------|

B|--------------------------------------------------------------------------------------|

G|--7--7--7------------------7--7--7--9--10--9----------7--7--9--10--9--7-----------12--|

D|-----------10--10--10-------------------------10-------------------------10--9--------|

A|--------------------------------------------------------------------------------------|

E|--------------------------------------------------------------------------------------|

 

 

Pre-Chorus/Pre-Estribillo:

 

e|-------------------------------------------------------------------------------------|

B|-------------------------------------------------------------------------------------|

G|--7--9--10--9--7--9--10------------7-----------------------7----------9--7--6--7--9--|

D|---------------------------10--10-----10--7------9--9--10---------10-----------------|

A|-------------------------------------------------------------------------------------|

E|-------------------------------------------------------------------------------------|

 

e|------------------------------------------------------------|

B|--------------8------------------------8--------------------|

G|--10--10--10-----7----7--9--10--9--10-----7----7--9--10--7--|

D|------------------------------------------------------------|

A|------------------------------------------------------------|

E|------------------------------------------------------------|

 

 

Intermediate/Intermedio:

 

e|---------------------------------------------|---------------------------------18--20--18----17--|

B|--------------b20----20--18--17--18--20------|--------------b20----20--20--18--------------------|

G|--19--17--19-----------------------------17--|--19--17--19---------------------------------------|

D|---------------------------------------------|---------------------------------------------------|

A|---------------------------------------------|---------------------------------------------------|

E|---------------------------------------------|---------------------------------------------------|

 

 

Verse/Estrofa:

 

e|-------------------------------------------------------------------------------------------|

B|-------------------------------------------------------------------------------------------|

G|--7--7--7------------------7--7--7--9--10--9----------7--7--7------7------7--10--9------7--|

D|-----------10--10--10-------------------------10---------------10-----10------------10-----|

A|-------------------------------------------------------------------------------------------|

E|-------------------------------------------------------------------------------------------|

 

e|--------------------------------------------------------------------------------------|

B|--------------------------------------------------------------------------------------|

G|--7--7--7------------------7--7--7--9--10--9----------7--7--9--10--9--7-----------12--|

D|-----------10--10--10-------------------------10-------------------------10--9--------|

A|--------------------------------------------------------------------------------------|

E|--------------------------------------------------------------------------------------|

 

 

Pre-Chorus/Pre-Estribillo:

 

e|-------------------------------------------------------------------------------------|

B|-------------------------------------------------------------------------------------|

G|--7--9--10--9--7--9--10------------7-----------------------7----------9--7--6--7--9--|

D|---------------------------10--10-----10--7------9--9--10---------10-----------------|

A|-------------------------------------------------------------------------------------|

E|-------------------------------------------------------------------------------------|

 

e|----------------------------------------------------------------|

B|-------------------------------------8--------------------------|

G|------9--7--6--7--9------10--10--10-----7----7--9--10--9--9--9--|

D|--10------------------------------------------------------------|

A|----------------------------------------------------------------|

E|----------------------------------------------------------------|

 

 

Chorus/Estribillo:

 

e|---------------------------------------------------------------------------------------------------------|

B|-----------------------------------------------------------8---------------------------------------------|

G|-----10--10--10--10--10--10--10--9--7-----7--9--10--9--10-----7-----7--9--10--9--10--9--10--10--9--7--6--|

D|--7------------------------------------------------------------------------------------------------------|

A|---------------------------------------------------------------------------------------------------------|

E|---------------------------------------------------------------------------------------------------------|

 

e|----------------------------------------------------------------------------------------------------------|

B|------------------------------------------------------------8---------------------------------------------|

G|-----10--10--10--10--10--10--10--9--7------7--9--10--9--10-----7------7--9--10--9--10--9--12--10--9-------|

D|--7----------------------------------------------------------------------------------------------------7--|

A|----------------------------------------------------------------------------------------------------------|

E|----------------------------------------------------------------------------------------------------------|

 

e|---------------------------------------------------------------|------------------------------------------|

B|------------------------------------------------------8--------|------------------------------8-----------|

G|---------7--7--9--10--9-----------7--9--10--10--9--7-----7--7--|--10--10--10--10----9--9--10-----9--7--7--|

D|--9--10------------------7--7----------------------------------|------------------------------------------|

A|---------------------------------------------------------------|------------------------------------------|

E|---------------------------------------------------------------|------------------------------------------|

The Last Element - Tron544
00:00 / 00:00
DONATE%20BUTTON%20(EN)_edited.png

Verse/Estrofa:

 

e|-------------------------------------------------------------------------------------------|

B|-------------------------------------------------------------------------------------------|

G|--7--7--7------------------7--7--7--9--10--9----------7--7--7------7------7--10--9------7--|

D|-----------10--10--10-------------------------10---------------10-----10------------10-----|

A|-------------------------------------------------------------------------------------------|

E|-------------------------------------------------------------------------------------------|

 

e|--------------------------------------------------------------------------------------|

B|--------------------------------------------------------------------------------------|

G|--7--7--7------------------7--7--7--9--10--9----------7--7--9--10--9--7-----------12--|

D|-----------10--10--10-------------------------10-------------------------10--9--------|

A|--------------------------------------------------------------------------------------|

E|--------------------------------------------------------------------------------------|

 

 

Pre-Chorus/Pre-Estribillo:

 

e|-------------------------------------------------------------------------------------|

B|-------------------------------------------------------------------------------------|

G|--7--9--10--9--7--9--10------------7-----------------------7----------9--7--6--7--9--|

D|---------------------------10--10-----10--7------9--9--10---------10-----------------|

A|-------------------------------------------------------------------------------------|

E|-------------------------------------------------------------------------------------|

 

e|----------------------------------------------------------------|

B|-------------------------------------8--------------------------|

G|------9--7--6--7--9------10--10--10-----7----7--9--10--9--9--9--|

D|--10------------------------------------------------------------|

A|----------------------------------------------------------------|

E|----------------------------------------------------------------|

 

 

Chorus/Estribillo:

 

e|---------------------------------------------------------------------------------------------------------|

B|-----------------------------------------------------------8---------------------------------------------|

G|-----10--10--10--10--10--10--10--9--7-----7--9--10--9--10-----7-----7--9--10--9--10--9--10--10--9--7--6--|

D|--7------------------------------------------------------------------------------------------------------|

A|---------------------------------------------------------------------------------------------------------|

E|---------------------------------------------------------------------------------------------------------|

 

e|---------------------------------------------------------------------------------------------------------|

B|------------------------------------------------------------8--------------------------------------------|

G|-----10--10--10--10--10--10--10--9--7------7--9--10--9--10-----7-----7--9--10--9--10--9--12--10--9-------|

D|--7---------------------------------------------------------------------------------------------------7--|

A|---------------------------------------------------------------------------------------------------------|

E|---------------------------------------------------------------------------------------------------------|

 

e|---------------------------------------------------------------|------------------------------------------|

B|------------------------------------------------------8--------|------------------------------8-----------|

G|---------7--7--9--10--9-----------7--9--10--10--9--7-----7--7--|--10--10--10--10----9--9--10-----9--7--7--|

D|--9--10------------------7--7----------------------------------|------------------------------------------|

A|---------------------------------------------------------------|------------------------------------------|

E|---------------------------------------------------------------|------------------------------------------|

 

 

Bridge/Puente:

 

e|-----------------------------------------------------------------|

B|--------------b20----18-h20-p18------17--18--20--17--------------|

G|--19--17--19-----------------------------------------17--19--17--|

D|-----------------------------------------------------------------|

A|-----------------------------------------------------------------|

E|-----------------------------------------------------------------|

 

e|------------------------------15--17--18--b20r--17-h18-p17--|

B|--15--------------15--17------------------------------------|

G|------17--14--17--------------------------------------------|

D|------------------------------------------------------------|

A|------------------------------------------------------------|

E|------------------------------------------------------------|

 

e|-----------------------------------------------------------------|

B|--------------b20----18-h20-p18------17--18--20--17--------------|

G|--19--17--19-----------------------------------------17--19--17--|

D|-----------------------------------------------------------------|

A|-----------------------------------------------------------------|

E|-----------------------------------------------------------------|

 

e|---------------------------------------------------------17--|

B|--------------b20----18-h20-p18--------------17--19--20------|

G|--19--17--19-------------------------17--19------------------|

D|-------------------------------------------------------------|

A|-------------------------------------------------------------|

E|-------------------------------------------------------------|

 

e|--15--17--18--b20r--18----17--20--18--17--20--18--17--20--18------17--|

B|----------------------------------------------------------------------|

G|----------------------------------------------------------------------|

D|----------------------------------------------------------------------|

A|----------------------------------------------------------------------|

E|----------------------------------------------------------------------|

 

 

Last Chorus/Ultimo Estribillo:

 

e|--------------------------------------------------------------------------------------------------------|

B|---------------------------------------------------------8----------------------------------------------|

G|--10--10--10--10--10--10--10--9--7------7--9--10--9--10-----7------7--9--10--9--10--9--10--10--9--7--6--|

D|--------------------------------------------------------------------------------------------------------|

A|--------------------------------------------------------------------------------------------------------|

E|--------------------------------------------------------------------------------------------------------|

 

e|----------------------------------------------------------------------------------------------------------|

B|------------------------------------------------------------8---------------------------------------------|

G|-----10--10--10--10--10--10--10--9--7------7--9--10--9--10-----7------7--9--10--9--10--9--12--10--9-------|

D|--7----------------------------------------------------------------------------------------------------7--|

A|----------------------------------------------------------------------------------------------------------|

E|----------------------------------------------------------------------------------------------------------|

 

e|---------------------------------------------------------------------------------------------------------|

B|-----------------------------------------------------------8---------------------------------------------|

G|-----10--10--10--10--10--10--10--9--7-----7--9--10--9--10-----7-----7--9--10--9--10--9--10--10--9--7--6--|

D|--7------------------------------------------------------------------------------------------------------|

A|---------------------------------------------------------------------------------------------------------|

E|---------------------------------------------------------------------------------------------------------|

 

e|----------------------------------------------------------------------------------------------------------|

B|------------------------------------------------------------8---------------------------------------------|

G|-----10--10--10--10--10--10--10--9--7------7--9--10--9--10-----7------7--9--10--9--10--9--12--10--9-------|

D|--7----------------------------------------------------------------------------------------------------7--|

A|----------------------------------------------------------------------------------------------------------|

E|----------------------------------------------------------------------------------------------------------|

 

e|---------------------------------------------------------------|------------------------------------------|

B|------------------------------------------------------8--------|------------------------------8-----------|

G|---------7--7--9--10--9-----------7--9--10--10--9--7-----7--7--|--10--10--10--10----9--9--10-----9--7--7--|

D|--9--10------------------7--7----------------------------------|------------------------------------------|

A|---------------------------------------------------------------|------------------------------------------|

E|---------------------------------------------------------------|------------------------------------------|

©2015 by Fefe - Tron544

Sigueme en:

  • YouTube - White Circle
  • Facebook - White Circle
  • Instagram - White Circle
  • Twitter - White Circle
This site was designed with the
.com
website builder. Create your website today.
Start Now