THE HERO!!

ONE PUNCH MAN

TABS ~ By Fefe (Tron544)

 

Intro:

 

GUITAR 1:

 

e|-------------------------------------------------------|
B|-------------------------------------------------------|
G|-------------------------------------------------------|
D|--0--3--5--3--5--6---0--3--5--6--7---0--3--5--3--5--6--|
A|--0--3--5--3--5--6---0--3--5--6--7---0--3--5--3--5--6--|
D|--0--3--5--3--5--6---0--3--5--6--7---0--3--5--3--5--6--|

 

GUITAR 2:

 

e|--------------------0--|
B|--------------6--------|
G|--5-(NH)---------5-----|
D|-----------------------|
A|-----------------------|
D|-----------------------|

 

GUITAR 1:

 

e|---------------------------------|
B|---------------------------------|
G|---------------------------------|
D|--9--9--5--5--5---0--0--7--7--7--|
A|--9--9--5--5--5---0--0--7--7--7--|
D|--9--9--5--5--5---0--0--7--7--7--|

 

GUITAR 2:

 

e|--------------------------------------------------------|
B|--------------19-/-20--19-------17--20--19--17----------|
G|--16--18--19---------------19-------------------19--18--|
D|--------------------------------------------------------|
A|--------------------------------------------------------|
D|--------------------------------------------------------|

 

GUITAR 1:

 

e|---------------------------------|
B|---------------------------------|
G|---------------------------------|
D|--9--9--5--5--5---4--4--7--7--7--|
A|--9--9--5--5--5---4--4--7--7--7--|
D|--9--9--5--5--5---4--4--7--7--7--|

 

GUITAR 2:

 

e|------------------------------------18--17--19--19-/-21--|----------------------------------------|
B|--------------19-/-20--19-------17-----------------------|----------------------------------------|
G|--16--18--19---------------19----------------------------|----------------------------------------|
D|---------------------------------------------------------|----------------------------------------|
A|---------------------------------------------------------|----------------------------------------|
D|---------------------------------------------------------|--0-h-3--0-h-3--0-h-3--0-h-3--0-h-3--0--|

 


Verse/Estrofa:

 

GUITAR 1:

 

e|-----|
B|-----|
G|-----|
D|--0--|
A|--0--|
D|--0--|

 

GUITAR 2:

 

e|-------------------------------------------------------------------|
B|-------------------------------------------------------------------|
G|--11--11--11--11--11--11--11--11---11--11--11--11--11--11--11--11--|
D|-------------------------------------------------------------------|
A|--9---9---9---9---9---9---9---9----9---9---9---9---9---9---9---9---|
D|-------------------------------------------------------------------|

 

e|-------------------------------------------------------------------|
B|-------------------------------------------------------------------|
G|--12--12--12--12--12--12--12--12---12--12--12--12--12--12--12--12--|
D|-------------------------------------------------------------------|
A|--10--10--10--10--10--10--10--10---10--10--10--10--10--10--10--10--|
D|-------------------------------------------------------------------|

 

GUITAR 1:

e|-------------------------------------------------------------------------------|
B|-------------------------------------------------------------------------------|
G|-------------------------------------------------------------------------------|
D|-------------------------------------------------------------------------------|
A|-------------------------------------------------------------------------------|
D|--0-h-3--0-h-3--0-h-3--0-h-3--0-h-3--0---0-h-3--0-h-3--0-h-3--0-h-3--0-h-3--0--|

 

GUITAR 2:

 

e|-------------------------------------------------------------------------------|
B|-------------------------------------------------------------------------------|
G|-------------------------------------------------------------------------------|
D|-------------------------------------------------------------------------------|
A|-------------------------------------------------------------------------------|
D|--0-h-3--0-h-3--0-h-3--0-h-3--0-h-3--0---0-h-3--0-h-3--0-h-3--0-h-3--0-h-3--0--|

 

GUITAR 1:

 

e|------------------------------------------------------------------------------------------------------|
B|------------------------------------------------------------------------------------------------------|
G|------------------------------------------------------------------------------------------------------|
D|------------------------------------------------------------------------------------------------------|
A|------------------------------------------------------------------------------------------------------|
D|--(0)-x--x--x--x--x--x--x---x--x--x--x--x--x--x--x---x--x--x--x--x--x--x--x---x--x--x--x--x--x--x--x--|

 

GUITAR 2:

 

e|------------------------------------------------------------------------------------------------------|
B|------------------------------------------------------------------------------------------------------|
G|------------------------------------------------------------------------------------------------------|
D|------------------------------------------------------------------------------------------------------|
A|------------------------------------------------------------------------------------------------------|
D|--(0)-x--x--x--x--x--x--x---x--x--x--x--x--x--x--x---x--x--x--x--x--x--x--x---x--x--x--x--x--x--x--x--|

 

GUITAR 1:

 

e|------------------------------------|
B|------------------------------------|
G|------------------------------------|
D|--0--3--5--3--5--6---0--3--5--6--7--|
A|--0--3--5--3--5--6---0--3--5--6--7--|
D|--0--3--5--3--5--6---0--3--5--6--7--|

 

GUITAR 2:

 

e|---------------------------------------------------|
B|--15------13------13-------15------13------15------|
G|------14------14------14-------14------14------14--|
D|---------------------------------------------------|
A|---------------------------------------------------|
D|---------------------------------------------------|

 


Pre-Chorus/Pre-Estribillo:

 

GUITAR 1:

 

e|-------------------------------------------------------------------------------|
B|-------------------------------------------------------------------------------|
G|-------------------------------------------------------------------------------|
D|--(0)-x--x--x--x--x--x--x---x--x--x--x--x--x---7---8------7--x--x--7--x--x--7--|
A|--(0)-x--x--x--x--x--x--x---x--x--x--x--x--x---7---8------7--x--x--7--x--x--7--|
D|--(0)-x--x--x--x--x--x--x---x--x--x--x--x--x---7---8------7--x--x--7--x--x--7--|

 

GUITAR 2:

 

e|-----------------------------------------------|
B|----------10---11------10--#--#--10--#--#--10--|
G|--12-------------------------------------------|
D|----------7----8-------7---#--#--7---#--#--7---|
A|--10-------------------------------------------|
D|-----------------------------------------------|

THE HERO!! - Tron544
00:00 / 00:00
DONATE%20BUTTON%20(EN)_edited.png

Chorus/Estribillo:

 

GUITAR 1:

 

e|-----------------------------------------------------------------|
B|-----------------------------------------------------------------|
G|-----------------------------------------------------------------|
D|--9--9--9--9--9---5--5--5--5--5---0--0--0--0--0---7--7--7--7--7--|
A|--9--9--9--9--9---5--5--5--5--5---0--0--0--0--0---7--7--7--7--7--|
D|--9--9--9--9--9---5--5--5--5--5---0--0--0--0--0---7--7--7--7--7--|

 

GUITAR 2:

 

e|---------------------------------------------------------------------------------------------------------|
B|--7--7--7--7--7--7--7--7---7--7--7--7--7--7--7--7---7--7--7--7--7--7--8--8---10--10--10--10--8--8--8--8--|
G|---------------------------------------------------------------------------------------------------------|
D|--4--4--4--4--4--4--4--4---4--4--4--4--4--4--4--4---4--4--4--4--4--4--5--5---7---7---7---7---5--5--5--5--|
A|---------------------------------------------------------------------------------------------------------|
D|---------------------------------------------------------------------------------------------------------|

 

GUITAR 1:

 

e|-----------------------------------------------------------------|
B|-----------------------------------------------------------------|
G|-----------------------------------------------------------------|
D|--9--9--9--9--9---5--5--5--5--5---7--7--7--7--7---9--9--9--9--9--|
A|--9--9--9--9--9---5--5--5--5--5---7--7--7--7--7---9--9--9--9--9--|
D|--9--9--9--9--9---5--5--5--5--5---7--7--7--7--7---9--9--9--9--9--|

 

GUITAR 2:

 

e|-----------------------------------------------------------------------------------------------------|
B|--7--7--7--7--7--7--7--7-----------------------------------------------------------------------------|
G|---------------------------7--7--7--7--7--7--7--7---6--6--6--6--6--6--6--6---7--7--7--7--7--7--7--7--|
D|--4--4--4--4--4--4--4--4-----------------------------------------------------------------------------|
A|---------------------------5--5--5--5--5--5--5--5---4--4--4--4--4--4--4--4---5--5--5--5--5--5--5--5--|
D|-----------------------------------------------------------------------------------------------------|

 

GUITAR 1:

 

e|-----------------------------------------------------------------|
B|-----------------------------------------------------------------|
G|-----------------------------------------------------------------|
D|--9--9--9--9--9---5--5--5--5--5---0--0--0--0--0---7--7--7--7--7--|
A|--9--9--9--9--9---5--5--5--5--5---0--0--0--0--0---7--7--7--7--7--|
D|--9--9--9--9--9---5--5--5--5--5---0--0--0--0--0---7--7--7--7--7--|

 

GUITAR 2:

 

e|----------------------------------------------------------------------------------7--7--7--7--7--7--7--7--|
B|--7--7--7--7--7--7--7--7--8--8--8--8--8--8--8--8--10--10--10--10--10--10--10--10--------------------------|
G|----------------------------------------------------------------------------------4--4--4--4--4--4--4--4--|
D|--4--4--4--4--4--4--4--4--5--5--5--5--5--5--5--5--7---7---7---7---7---7---7---7---------------------------|
A|----------------------------------------------------------------------------------------------------------|
D|----------------------------------------------------------------------------------------------------------|

 

GUITAR 1:

 

e|-------------------------------------------------------|
B|-------------------------------------------------------|
G|-------------------------------------------------------|
D|--9--9--9--9--9---5--5--5--5--5---7--#--7--#--#--7--7--|
A|--9--9--9--9--9---5--5--5--5--5---7--#--7--#--#--7--7--|
D|--9--9--9--9--9---5--5--5--5--5---7--#--7--#--#--7--7--|

 

GUITAR 2:

 

e|--9--9--9--9--9--9--9--9-------------------------------------------------------------|
B|---------------------------10--10--10--10--10--10--10--10---10--#--10--#--#--10--10--|
G|--6--6--6--6--6--6--6--6-------------------------------------------------------------|
D|---------------------------7---7---7---7---7---7---7---7----7---#--7---#--#--7---7---|
A|-------------------------------------------------------------------------------------|
D|-------------------------------------------------------------------------------------|

 

GUITAR 1:

 

e|-----------------------------------------------------------------|
B|-----------------------------------------------------------------|
G|-----------------------------------------------------------------|
D|--4--4--4--4--4---5--5--5--5--5---7--7--7--7--7---8--8--8--8--8--|
A|--5--5--5--5--5---5--5--5--5--5---7--7--7--7--7---9--9--9--9--9--|
D|--4--4--4--4--4---5--5--5--5--5---7--7--7--7--7---8--8--8--8--8--|

 

GUITAR 2:

 

e|------14---------------------------------------15--14--------------|
B|--15------15------17--15--14--15---15--17--15----------17--15--14--|
G|--------------14---------------------------------------------------|
D|-------------------------------------------------------------------|
A|-------------------------------------------------------------------|
D|-------------------------------------------------------------------|

 

GUITAR 1:

 

e|-----------------------------------------------------------------|
B|-----------------------------------------------------------------|
G|-----------------------------------------------------------------|
D|--9--9--9--9--9---5--5--5--5--5---7--7--7--7--7---0--0--0--0--0--|
A|--9--9--9--9--9---5--5--5--5--5---7--7--7--7--7---0--0--0--0--0--|
D|--9--9--9--9--9---5--5--5--5--5---7--7--7--7--7---0--0--0--0--0--|

 

GUITAR 2:

 

e|-------------------------------------------------------------------|
B|--15------15--17--15--14--15--14---------------------------14--15--|
G|------14---------------------------14--12--14--12--11--14----------|
D|-------------------------------------------------------------------|
A|-------------------------------------------------------------------|
D|-------------------------------------------------------------------|

 

GUITAR 1:

 

e|-----------------------------------------------------------------|
B|-----------------------------------------------------------------|
G|-----------------------------------------------------------------|
D|--9--9--9--9--9---5--5--5--5--5---0--0--0--0--0---7--7--7--7--7--|
A|--9--9--9--9--9---5--5--5--5--5---0--0--0--0--0---7--7--7--7--7--|
D|--9--9--9--9--9---5--5--5--5--5---0--0--0--0--0---7--7--7--7--7--|

 

GUITAR 2:

 

e|------14---------------------------------------15--14--------------|
B|--15------15------17--15--14--15---15--17--15----------17--15--14--|
G|--------------14---------------------------------------------------|
D|-------------------------------------------------------------------|
A|-------------------------------------------------------------------|
D|-------------------------------------------------------------------|

 

GUITAR 1:

 

e|-------------------------------------------------------------------|
B|-------------------------------------------------------------------|
G|-------------------------------------------------------------------|
D|--9--9--9--9--9---5--5--5--5--5---7--#--7--#--#--7--#--7--#--#--7--|
A|--9--9--9--9--9---5--5--5--5--5---7--#--7--#--#--7--#--7--#--#--7--|
D|--9--9--9--9--9---5--5--5--5--5---7--#--7--#--#--7--#--7--#--#--7--|

 

GUITAR 2:

 

e|-----------------------------------17--|
B|--15------15--17--15--14--15--14-------|
G|------14-------------------------------|
D|---------------------------------------|
A|---------------------------------------|
D|---------------------------------------|

 


Outro:

 

GUITAR 1:

 

e|---------------------------------|
B|---------------------------------|
G|---------------------------------|
D|--9--9--5--5--5---0--0--7--7--7--|
A|--9--9--5--5--5---0--0--7--7--7--|
D|--9--9--5--5--5---0--0--7--7--7--|

 

GUITAR 2:

 

e|--------------------------------------------------------|
B|--------------19-/-20--19-------17--20--19--17----------|
G|--16--18--19---------------19-------------------19--18--|
D|--------------------------------------------------------|
A|--------------------------------------------------------|
D|--------------------------------------------------------|

 

GUITAR 1:

 

e|---------------------------------|
B|---------------------------------|
G|---------------------------------|
D|--9--9--5--5--5---4--4--7--7--7--|
A|--9--9--5--5--5---4--4--7--7--7--|
D|--9--9--5--5--5---4--4--7--7--7--|

 

GUITAR 2:

 

e|------------------------------------18--17--19--19-/-21--|
B|--------------19-/-20--19-------17-----------------------|
G|--16--18--19---------------19----------------------------|
D|---------------------------------------------------------|
A|---------------------------------------------------------|
D|---------------------------------------------------------|

 

GUITAR 1:

 

e|---------------------------------|
B|---------------------------------|
G|---------------------------------|
D|--9--9--5--5--5---0--0--7--7--7--|
A|--9--9--5--5--5---0--0--7--7--7--|
D|--9--9--5--5--5---0--0--7--7--7--|

 

GUITAR 2:

 

e|--------------------------------------------------------|
B|--------------19-/-20--19-------17--20--19--17----------|
G|--16--18--19---------------19-------------------19--18--|
D|--------------------------------------------------------|
A|--------------------------------------------------------|
D|--------------------------------------------------------|

 

GUITAR 1:

 

e|---------------------------------|
B|---------------------------------|
G|---------------------------------|
D|--9--9--5--5--5---4--4--7--7--7--|
A|--9--9--5--5--5---4--4--7--7--7--|
D|--9--9--5--5--5---4--4--7--7--7--|

 

GUITAR 2:

 

e|------------------------------------18--17--19--19-/-21--|
B|--------------19-/-20--19-------17-----------------------|
G|--16--18--19---------------19----------------------------|
D|---------------------------------------------------------|
A|---------------------------------------------------------|
D|---------------------------------------------------------|

 

GUITAR 1:

 

e|---------------------------------------------------------------|
B|---------------------------------------------------------------|
G|---------------------------------------------------------------|
D|--7-h-9--#--9--#--#---7-h-9--#--9--#--#---7-h-9--#--9------15--|
A|--7-h-9--#--9--#--#---7-h-9--#--9--#--#---7-h-9--#--9------15--|
D|--7-h-9--#--9--#--#---7-h-9--#--9--#--#---7-h-9--#--9------15--|

 

GUITAR 2:

 

e|---------------------------------------------------------------|
B|---------------------------------------------------------------|
G|---------------------------------------------------------------|
D|--7-h-9--#--9--#--#---7-h-9--#--9--#--#---7-h-9--#--9------15--|
A|--7-h-9--#--9--#--#---7-h-9--#--9--#--#---7-h-9--#--9------15--|
D|--7-h-9--#--9--#--#---7-h-9--#--9--#--#---7-h-9--#--9------15--|

©2015 by Fefe - Tron544

Sigueme en:

  • YouTube - White Circle
  • Facebook - White Circle
  • Instagram - White Circle
  • Twitter - White Circle
This site was designed with the
.com
website builder. Create your website today.
Start Now