~ THE DAY ~

TABLATURAS ~ By Fefe - Tron544

 

Intro:

 

GUITAR 1:

 

e|----------------------------|
B|----------------------------|
G|--6---9--6--9--6---9--6--7--|
D|--6---9--6--9--6---9--6--7--|
A|----------------------------|
E|----------------------------|

 

e|--------------------------|
B|--------------------------|
G|--6------4------6------4--|
D|--6------4------6------4--|
A|--4------2------4------2--|
E|--------------------------|

 

GUITAR 2:

 

e|-------------------------------------------------------------------------------------------|
B|--------------9---------------------10--9--9---------------9---------------------10--9--9--|
G|-----------------9--9---11--11--11----------------------------9--9---11--11--11------------|
D|--11--11--11-----------------------------------11--11--11----------------------------------|
A|-------------------------------------------------------------------------------------------|
E|-------------------------------------------------------------------------------------------|

 

GUITAR 1:

 

e|---------------------------------------------------------------------|
B|---------------------------------------------------------------------|
G|--2---------------------------6--6---8--8---9--9---11--11---13---16--|
D|--2------6------4------6---------------------------------------------|
A|--0------6------4------6------4--4---6--6---7--7---9---9----11---14--|

E|---------4------2------4---------------------------------------------|

 

GUITAR 2:

 

e|---------------------------------------------------------------------------------------|
B|------------------------------------------------------------------------9--9-------14--|
G|------------------9------9--9--11--9--8--------------------------9-------------11------|
D|--------------11-----11------------------11--9---------------11-----11-----------------|
A|--12--12--12-------------------------------------12--12--12----------------------------|
E|---------------------------------------------------------------------------------------|

 

GUITAR 1:

 

e|---------------------------------------------------------------|
B|---------------------------------------------------------------|
G|---------------------------------------------------------------|
D|--7--7--7--7--7--7--7--7--7--7---6--6--6--6--6--6--6--6--6--6--|
A|--7--7--7--7--7--7--7--7--7--7---6--6--6--6--6--6--6--6--6--6--|
E|--5--5--5--5--5--5--5--5--5--5---4--4--4--4--4--4--4--4--4--4--|

 

GUITAR 3:

 

e|--11----12-p-11---------------------------|
B|-----------------12-------9----10-p-9-----|
G|----------------------11---------------9--|
D|------------------------------------------|
A|------------------------------------------|
E|------------------------------------------|

 

GUITAR 1:

 

e|--------------------------------------------------------|
B|--------------------------------------------------------|
G|-----------------------------------------------------4--|
D|--7--7--7--7--7--7--7--7--7--7---6--6--6--6--6--6----4--|
A|--7--7--7--7--7--7--7--7--7--7---6--6--6--6--6--6----2--|
E|--5--5--5--5--5--5--5--5--5--5---4--4--4--4--4--4-------|

 

GUITAR 3:

 

e|--11----12-p-11------------------------12--|
B|-----------------12-------9----10-p-9------|
G|----------------------11-------------------|
D|-------------------------------------------|
A|-------------------------------------------|
E|-------------------------------------------|

 


Verse/Estrofa:

 

GUITAR 1:

 

e|--------------------------------------|
B|--------------------------------------|
G|--6--6------4--4------6--6------4--4--|
D|--6--6------4--4------6--6------4--4--|
A|--4--4------2--2------4--4------2--2--|
E|--------------------------------------|

 

GUITAR 2:

 

e|------------------------------------------------------------------------|
B|------------------------------------------------------------------------|
G|--9---9--9--9--9--9--9--9--8----9---9--9--9--9--9--9--11---9--8---------|
D|-----------------------------------------------------------------11--9--|
A|------------------------------------------------------------------------|
E|------------------------------------------------------------------------|

 

GUITAR 1:

 

e|--------------------------------------------|
B|--------------------------------------------|
G|--6--6------4--4------2--2------------------|
D|--6--6------4--4------2--2------6--6--6--6--|
A|--4--4------2--2------0--0------6--6--6--6--|
E|--------------------------------4--4--4--4--|

 

GUITAR 2:

 

e|------------------------------------------------------|
B|---------------------------------------------------9--|
G|--9---9--9--9--9--9--9--9--9--9--11---9--9--8---------|
D|-----------------------------------------------11-----|
A|------------------------------------------------------|
E|------------------------------------------------------|

 

GUITAR 1:

 

e|--------------------------------------|
B|--------------------------------------|
G|--6--6------4--4------6--6------4--4--|
D|--6--6------4--4------6--6------4--4--|
A|--4--4------2--2------4--4------2--2--|
E|--------------------------------------|

 

GUITAR 2:

 

e|----------------------------------------------------------------------|
B|----------------------------------------------------------------------|
G|--9---9--9--9--9--9--9--9--8----9---9--9--9--9--9--9--11---9----------|
D|---------------------------------------------------------------11--9--|
A|----------------------------------------------------------------------|
E|----------------------------------------------------------------------|

 

GUITAR 3:

 

e|----------------------------------------------------------|
B|-------------9-----------10---------------9-----------10--|
G|------9--------------8---8---------9--------------8---8---|
D|--11-----11-------9------9-----11-----11-------9------9---|
A|----------------------------------------------------------|
E|----------------------------------------------------------|

 

GUITAR 1:

 

e|------------------------------------------------|
B|------------------------------------------------|
G|--6--6------4--4------2--2----------------------|
D|--6--6------4--4------2--2------6--6--6--6---6--|
A|--4--4------2--2------0--0------6--6--6--6---6--|
E|--------------------------------4--4--4--4---4--|

 

GUITAR 2:

 

e|------------------------------------------------------|
B|---------------------------------------------------9--|
G|--9---9--9--9--9--9--9--9--9--9--11---9--9--8---------|
D|-----------------------------------------------11-----|
A|------------------------------------------------------|
E|------------------------------------------------------|

 

GUITAR 3:

 

e|----------------------------------------5---------------|
B|-------------9-----------10-------------5----9--9----9--|
G|------9--------------8---8--------6----------8--8----8--|
D|--11-----11-------9------9-----7-----7-------7--7----7--|
A|--------------------------------------------------------|
E|--------------------------------------------------------|

 


Pre-Chorus/Pre-Estribillo:

 

GUITAR 1:

 

e|-----------------------------------------------|
B|-----------------------------------------------|
G|-------------------------6--6--6--6---6--6--6--|
D|--6--6--6--6---6--6--6---6--6--6--6---6--6--6--|
A|--6--6--6--6---6--6--6---4--4--4--4---4--4--4--|
E|--4--4--4--4---4--4--4-------------------------|

 

GUITAR 2:

 

e|----------------------------------------|
B|--9-------------------------------------|
G|-----9--8----8--8--8--9--8--------------|
D|----------------------------11--9-/-11--|
A|----------------------------------------|
E|----------------------------------------|

 

GUITAR 3:

 

e|--8--8--8--8---8--8--8-------------------------|
B|-------------------------9--9--9--9---9--9--9--|
G|--5--5--5--5---5--5--5-------------------------|
D|-------------------------6--6--6--6---6--6--6--|
A|-----------------------------------------------|
E|-----------------------------------------------|

 

GUITAR 1:

 

e|--------------------------------------------------------------|----------------------|
B|--------------------------------------------------------------|----------------------|
G|-------------------------6---6---6--6--6--6--6----------------|--5---6---8---13------|
D|--6--6--6--6---6--6--6---6---6---6--6--6--6--6---6---6--6--6--|-------------------6--|
A|--6--6--6--6---6--6--6---4---4---4--4--4--4--4---6---6--6--6--|--3---4---6---11---6--|
E|--4--4--4--4---4--4--4---------------------------4---4--4--4--|-------------------4--|

 

GUITAR 2:

 

e|------------------------------------------------------------|
B|--9-----------------------------------------9--9------------|
G|-----9--8----8--8--9--8--8--9-/-11---9--8---------11--9--8--|
D|------------------------------------------------------------|
A|------------------------------------------------------------|
E|------------------------------------------------------------|

 

GUITAR 3:

 

e|--8--8--8--8---8--8--8----------------------------------11---11--11--11--|
B|-------------------------11---11---11--11--11--11--11--------------------|
G|--5--5--5--5---5--5--5----------------------------------8----8---8---8---|
D|-------------------------8----8----8---8---8---8---8---------------------|
A|-------------------------------------------------------------------------|
E|-------------------------------------------------------------------------|

 


Chorus/Estribillo:

 

GUITAR 1:

 

e|-----------------------------------------------------|
B|-----------------------------------------------------|
G|--6--6--6--6---4--4--4--4---6--6--6--6---4--4--4--4--|
D|--6--6--6--6---4--4--4--4---6--6--6--6---4--4--4--4--|
A|--4--4--4--4---2--2--2--2---4--4--4--4---2--2--2--2--|
E|-----------------------------------------------------|

 

GUITAR 2:

 

e|-------------------------------------------------------------------------------------------|
B|--------------9---------------------10--9--9---------------9---------------------10--9--9--|
G|-----------------9--9---11--11--11----------------------------9--9---11--11--11------------|
D|--11--11--11-----------------------------------11--11--11----------------------------------|
A|-------------------------------------------------------------------------------------------|
E|-------------------------------------------------------------------------------------------|

 

GUITAR 3:

 

e|-----------------------------------------------------|
B|--5--5--5--5---4--4--4--4---5--5--5--5---4--4--4--4--|
G|--6--6--6--6---4--4--4--4---6--6--6--6---4--4--4--4--|
D|--6--6--6--6---4--4--4--4---6--6--6--6---4--4--4--4--|
A|-----------------------------------------------------|
E|-----------------------------------------------------|

 

GUITAR 1:

 

e|------------------------------------------------------|
B|------------------------------------------------------|
G|--2--2--2--2------------------------------------------|
D|--2--2--2--2---6--6--6--6---4--4--4--4---6--6---6--6--|
A|--0--0--0--0---6--6--6--6---4--4--4--4---6--6---6--6--|
E|---------------4--4--4--4---2--2--2--2---4--4---4--4--|

 

GUITAR 2:

 

e|------------------------------------------------------------------------------|
B|------------------------------------------------------------------------9--9--|
G|------------------9------9--9--11--9--8--------------------------9------------|
D|--------------11-----11------------------11--9---------------11-----11--------|
A|--12--12--12-------------------------------------12--12--12-------------------|
E|------------------------------------------------------------------------------|

 

GUITAR 3:

 

e|------------------------------------------------------------------------------------------|
B|--5--5--5--5--5--5--5--5---4--4--4--4--4--4--4--4---5--5--5--5--5--5--5--5---9--9---9--9--|
G|------------------------------------------------------------------------------------------|
D|--2--2--2--2--2--2--2--2---1--1--1--1--1--1--1--1---2--2--2--2--2--2--2--2---6--6---6--6--|
A|------------------------------------------------------------------------------------------|
E|------------------------------------------------------------------------------------------|

 

GUITAR 1:

 

e|-----------------------------------------------------|
B|-----------------------------------------------------|
G|--6--6--6--6---4--4--4--4---6--6--6--6---4--4--4--4--|
D|--6--6--6--6---4--4--4--4---6--6--6--6---4--4--4--4--|
A|--4--4--4--4---2--2--2--2---4--4--4--4---2--2--2--2--|
E|-----------------------------------------------------|

 

GUITAR 2:

 

e|-------------------------------------------------------------------------------------------|
B|--------------9---------------------10--9--9---------------9---------------------10--9--9--|
G|-----------------9--9---11--11--11----------------------------9--9---11--11--11------------|
D|--11--11--11-----------------------------------11--11--11----------------------------------|
A|-------------------------------------------------------------------------------------------|
E|-------------------------------------------------------------------------------------------|

 

GUITAR 3:

 

e|-----------------------------------------------------|
B|--5--5--5--5---4--4--4--4---5--5--5--5---4--4--4--4--|
G|--6--6--6--6---4--4--4--4---6--6--6--6---4--4--4--4--|
D|--6--6--6--6---4--4--4--4---6--6--6--6---4--4--4--4--|
A|-----------------------------------------------------|
E|-----------------------------------------------------|

 

GUITAR 1:

 

e|------------------------------------------------------|
B|------------------------------------------------------|
G|--2--2--2--2------------------------------------------|
D|--2--2--2--2---6--6--6--6---4--4--4--4---6--6---6--6--|
A|--0--0--0--0---6--6--6--6---4--4--4--4---6--6---6--6--|
E|---------------4--4--4--4---2--2--2--2---4--4---4--4--|

 

GUITAR 2:

 

e|---------------------------------------------------------------------------------------|
B|------------------------------------------------------------------------9--9-------14--|
G|------------------9------9--9--11--9--8--------------------------9-------------11------|
D|--------------11-----11------------------11--9---------------11-----11-----------------|
A|--12--12--12-------------------------------------12--12--12----------------------------|
E|---------------------------------------------------------------------------------------|

 

GUITAR 3:

 

e|------------------------------------------------------------------------------------------|
B|--5--5--5--5--5--5--5--5---4--4--4--4--4--4--4--4---5--5--5--5--5--5--5--5---9--9---9--9--|
G|------------------------------------------------------------------------------------------|
D|--2--2--2--2--2--2--2--2---1--1--1--1--1--1--1--1---2--2--2--2--2--2--2--2---6--6---6--6--|
A|------------------------------------------------------------------------------------------|
E|------------------------------------------------------------------------------------------|

 


Outro:

 

e|----------------------------------------------------------------------------------|
B|----------------------------------------------------------------------------------|
G|--6--6---8--8---9--9---11--11---13----6--6---8--8---9--9---11--11---13---16---14--|
D|----------------------------------------------------------------------------------|
A|--4--4---6--6---7--7---9---9----11----4--4---6--6---7--7---9---9----11---14---12--|
E|----------------------------------------------------------------------------------|

The Day - Tron544
00:00 / 00:00

©2019 by Fefe - Tron544

Sigueme en:

  • YouTube - White Circle
  • Facebook - White Circle
  • Instagram - White Circle
  • Twitter - White Circle
This site was designed with the
.com
website builder. Create your website today.
Start Now