THE BIGGEST DREAMER

DIGIMON TAMERS

TABS ~ By Fefe (Tron544)

 

Intro:

 

GUITAR 2:

 

e|------------------------------------------------------|

B|------------------------------------------------------|

G|--7--9--10--12---7--9--10--12---7--9--10--9--7--5--7--|

D|------------------------------------------------------|

A|------------------------------------------------------|

E|------------------------------------------------------|

 

e|-------------------------------------------------|

B|-------------------------------------------------|

G|--5--7--5--7-----7--5--7-----7--5--10--10--7--7--|

D|-------------------------------------------------|

A|-------------------------------------------------|

E|-------------------------------------------------|

 

GUITAR 1:

 

e|-----------------------------------------------|

B|-----------------------------------------------|

G|--7--7--7---5---7----(7)-x--x--x---x--x--x--x--|

D|--7--7--7---5---7----(7)-x--x--x---x--x--x--x--|

A|--5--5--5---3---5----(5)-x--x--x---x--x--x--x--|

E|-----------------------------------------------|

 

GUITAR 2:

 

e|--------------------------------------------------|

B|----------------------------6--6--5---------------|

G|--7--7--7--5--7----7--5--7-----------7--5--5-h-7--|

D|--------------------------------------------------|

A|--------------------------------------------------|

E|--------------------------------------------------|

 

GUITAR 1:

 

e|--------------------------------------------------------------------------------|

B|------------------------------------------12--12--10--8------6--6---------------|

G|--7--7--7---5---7----(7)-x--x--x---x--x--------------------------------6--6--6--|

D|--7--7--7---5---7----(7)-x--x--x---x--x---9---9---7---5------3--3------6--6--6--|

A|--5--5--5---3---5----(5)-x--x--x---x--x--------------------------------4--4--4--|

E|--------------------------------------------------------------------------------|

 

GUITAR 2:

 

e|-----------------------------------------------------------|

B|-----------6--6--5---12--12--10--8------6--6------2--2--2--|

G|--7--5--7--------------------------------------------------|

D|-----------------------------------------------------------|

A|-----------------------------------------------------------|

E|-----------------------------------------------------------|

 

 

Verse/Estrofa:

 

GUITAR 1:

 

e|------------|-----------------|

B|------------|-----------------|

G|--7------5--|--2------3----5--|

D|--7------5--|--2------3----5--|

A|--5------3--|--0------1----3--|

E|------------|-----------------|

 

GUITAR 2:

 

e|----------------------------------|-----------------------------------|

B|----------------------------------|-----------------------------------|

G|--------------5--7----------------|-----------------------------------|

D|--7--7--7--7--------7----5--3--5--|--5--5--5--5--5--7--3--------------|

A|----------------------------------|-----------------------5--5--3--5--|

E|----------------------------------|-----------------------------------|

 

GUITAR 1:

 

e|---------------|------------|

B|---------------|------------|

G|--7--7------5--|--2---------|

D|--7--7------5--|--2------5--|

A|--5--5------3--|--0------5--|

E|---------------|---------5--|

 

GUITAR 2:

 

e|--------------------------------------|-----------------------------|

B|--------------------------------------|-----------------------------|

G|-----------------5--7-----------------|-----------------------------|

D|--7--7--7--7--7--------7--5--5--3--5--|--5--5--5--5--5--5--7--3-----|

A|--------------------------------------|--------------------------5--|

E|--------------------------------------|-----------------------------|

The Biggest Dreamer - Tron544
00:00 / 00:00
DONATE%20BUTTON%20(EN)_edited.png

Pre-Chorus/Pre-Estribillo:

 

GUITAR 1:

 

e|-------------------------------------------------|-------------------------------------------------|

B|-------------------------------------------------|-------------------------------------------------|

G|-------------------------------------------------|--7---x--x---x--x--x--x--------------------------|

D|--5---x--x---x--x--x--x---7---x--x---x--x--x--x--|--7---x--x---x--x--x--x---5---x--x---x--x--x--x--|

A|--5---x--x---x--x--x--x---7---x--x---x--x--x--x--|--5---x--x---x--x--x--x---5---x--x---x--x--x--x--|

E|--3---x--x---x--x--x--x---5---x--x---x--x--x--x--|--------------------------3---x--x---x--x--x--x--|

 

GUITAR 2:

 

e|---------------------------------------------------|---------------------------|

B|---------------------------------------------------|---------------------------|

G|--------------------5--7---7--6--6--6--6--6--7--9--|--7--10--9--7--5--7--------|

D|--5--8--8--8--8--8---------------------------------|---------------------7--5--|

A|---------------------------------------------------|---------------------------|

E|---------------------------------------------------|---------------------------|

 

GUITAR 1:

 

e|-------------------------------------------------|-----------------------------|------------------------|

B|-------------------------------------------------|-----------------------------|------------------------|

G|-------------------------------------------------|-----------------------------|------------------------|

D|--5---x--x---x--x--x--x---7---x--x---x--x--x--x--|--8---x--x---x--x--x--x---7--|--(7)-x--x--x--x--x--x--|

A|--5---x--x---x--x--x--x---7---x--x---x--x--x--x--|--8---x--x---x--x--x--x---7--|--(7)-x--x--x--x--x--x--|

E|--3---x--x---x--x--x--x---5---x--x---x--x--x--x--|--6---x--x---x--x--x--x---5--|--(5)-x--x--x--x--x--x--|

 

GUITAR 2:

 

e|------------------------------------------------------|--------------------------------|------|

B|------------------------------------------------------|--------------------------------|------|

G|-----------------------5--7---7--6--6--6--6--6--7--9--|--7--10----10--10--7--9--10--9--|--14--|

D|--5--7--8--8--8--8--8---------------------------------|--------------------------------|------|

A|------------------------------------------------------|--------------------------------|------|

E|------------------------------------------------------|--------------------------------|------|

 

 

Chorus/Estribillo:

 

GUITAR 1:

 

e|--------------------|--------------------|

B|--------------------|--------------------|

G|--3----5---------7--|------------3----5--|

D|--3----5----7----7--|--5----7----3----5--|

A|--1----3----7----5--|--5----7----1----3--|

E|------------5-------|--3----5------------|

 

GUITAR 2:

 

e|------------------------------------------------------|-------------------------------------------------|

B|------------------------------------------------------|-------------------------------------------------|

G|--7--9--10--12---7--9--10--12---7--9--10--9--7--5-----|-----------2----------------------2--5--2--5--2--|

D|---------------------------------------------------7--|-----3--5--------3--5-------3--5-----------------|

A|------------------------------------------------------|--5-----------5----------5-----------------------|

E|------------------------------------------------------|-------------------------------------------------|

 

GUITAR 1:

 

e|--------------------|-----------------------|

B|--------------------|-----------------------|

G|--3----5---------7--|------------3---5---7--|

D|--3----5----7----7--|--5----7----3---5---7--|

A|--1----3----7----5--|--5----7----1---3---5--|

E|------------5-------|--3----5---------------|

 

GUITAR 2:

 

e|------------------------------------------------------|-------------------------------------------------|

B|------------------------------------------------------|-------------------------------------------------|

G|--7--9--10--12---7--9--10--12---7--9--10--9--7--5--7--|--5--7--5--7-----7--5--7-----5--7--5--10--10--7--|

D|------------------------------------------------------|-------------------------------------------------|

A|------------------------------------------------------|-------------------------------------------------|

E|------------------------------------------------------|-------------------------------------------------|

 

GUITAR 1:

 

e|--------------------|-----------------------|

B|--------------------|-----------------------|

G|--3----5---------7--|------------3---5---7--|

D|--3----5----7----7--|--5----7----3---5---7--|

A|--1----3----7----5--|--5----7----1---3---5--|

E|------------5-------|--3----5---------------|

 

GUITAR 2:

 

e|------------------------------------------------------|-------------------------------------------------|

B|------------------------------------------------------|-------------------------------------------------|

G|--7--9--10--12---7--9--10--12---7--9--10--9--7--5--7--|--5--7--5--7-----7--5--7-----5--7--5--10--10--7--|

D|------------------------------------------------------|-------------------------------------------------|

A|------------------------------------------------------|-------------------------------------------------|

E|------------------------------------------------------|-------------------------------------------------|

 

 

Outro:

 

GUITAR 1:

 

e|-----------------------------------------------|

B|-----------------------------------------------|

G|--7--7--7---5---7----(7)-x--x--x---x--x--x--x--|

D|--7--7--7---5---7----(7)-x--x--x---x--x--x--x--|

A|--5--5--5---3---5----(5)-x--x--x---x--x--x--x--|

E|-----------------------------------------------|

 

GUITAR 2:

 

e|--------------------------------------------------|

B|----------------------------6--6--5---------------|

G|--7--7--7--5--7----7--5--7-----------7--5--5-h-7--|

D|--------------------------------------------------|

A|--------------------------------------------------|

E|--------------------------------------------------|

 

GUITAR 1:

 

e|-----------------------------------------------------------------------------|

B|------------------------------------------12--12--10--8------6---------------|

G|--7--7--7---5---7----(7)-x--x--x---x--x-----------------------------5--5--7--|

D|--7--7--7---5---7----(7)-x--x--x---x--x---9---9---7---5------3------5--5--7--|

A|--5--5--5---3---5----(5)-x--x--x---x--x-----------------------------3--3--5--|

E|-----------------------------------------------------------------------------|

 

GUITAR 2:

 

e|-----------------------------------------------------------|

B|-----------6--6--5---12--12--10--8------6------13--13--15--|

G|--7--5--7--------------------------------------------------|

D|-----------------------------------------------------------|

A|-----------------------------------------------------------|

E|-----------------------------------------------------------|

©2015 by Fefe - Tron544

Sigueme en:

  • YouTube - White Circle
  • Facebook - White Circle
  • Instagram - White Circle
  • Twitter - White Circle
This site was designed with the
.com
website builder. Create your website today.
Start Now