~ TENSHI NI FURETA YO! ~

ACORDES ~ By Fefe - Tron544

 

 

Chords used/Acordes utilizados:

 

B5: x.2.4.4.x.x  -  Bb5: x.1.3.3.x.x
C5: x.3.5.5.x.x
D5: x.5.7.7.x.x
Eb5: x.6.8.8.x.x
F5: 1.3.3.x.x.x
G5: 3.5.5.x.x.x

 

 

Intro:

 

Bb5 | F5 | G5 - F5 | Eb5 | F5 |

 

 

Verse/Estrofa:

 

B5                   F5

Nee Omoide no kakera ni

  D5               G5       F5

Namae wo tsukete hozon suru nara

     Eb5                   F5

“Takaramono” ga pittari da ne

B5                    F5

Sou Kokoro no youryou ga

  D5              G5       

Ippai ni naru kurai ni

       Eb5        F5

Sugoshita ne Tokimeki iro no mainichi

 

 

Pre-Chorus/Pre-Estribillo:

 

         Eb5        F5

Najinda seifuku to uwabaki

    D5           G5

WHITEBOARD no rakugaki

   C5       D5

Ashita no iriguchi ni

 Eb5              F5

Oitekanakucha ikenai no kana

 

 

First Chorus/Primer Estribillo:

 

Bb5       F5        G5        F5

Demo ne, Aeta yo! Suteki na tenshi ni

   Eb5    F5    F5     G5

Sotsugyou wa owari ja nai

  C5        F5

Kore kara mo nakama dakara

Bb5          F5      D

Issho no shashintachi

 G5          F5

Osoro no KEY HOLDER

  Eb5    F5     D5   G5

Itsumade mo kagayaiteru

   C5       F5     Bb5

Zutto Sono egao Arigatou

 

 

Bridge/Puente:

 

    Eb5          F5

Eki no HOOMU Kawara no michi

    D5           G5      F5   Eb5  Bb5  C5

Hanaretete mo Onaji sora miagete

  Bb5     C5  D5   F5

UNISON de utaou!

 

 

Second Chorus/Segundo Estribillo:

 

Bb5       F5        G5        F5

Demo ne, Aeta yo! Suteki na tenshi ni

   Eb5    F5    F5     G5

Sotsugyou wa owari ja nai

  C5        F5

Kore kara mo nakama dakara

Bb5         F5      D5

Daisuki tte iu nara

     G5         F5

Dai daisuki tte kaesu yo

 Eb5  F5        D5    G5

Wasuremono mou nai yo ne

   C5   F5        

Zutto eien ni issho da yo

 

 

Outro:

 

Bb | F5 | G5 - F5 | Eb5 | F5 | Bb |

 

 

Tenshi ni Fureta yo! - Tron544
00:00 / 00:00

TABLATURAS ~ By Fefe - Tron544

 

Intro:

 

e|--------------------------13--11--10--11--10/11/10----------------------------------------------|

B|------10--11--13--11--13----------------------------13--11--10--10--11--13--10----------10--10--|

G|--10----------------------------------------------------------------------------10--12----------|

D|------------------------------------------------------------------------------------------------|

A|------------------------------------------------------------------------------------------------|

E|------------------------------------------------------------------------------------------------|

 

 

Verse/Estrofa: x2

 

e|-------------------------------|-----------------------------------|

B|-------------------------------|-----------------------------------|

G|--7--7--8--10--8--7---------7--|--7--7--8--10--8--7------7---------|

D|---------------------10--8-----|---------------------10-----10--8--|

A|-------------------------------|-----------------------------------|

E|-------------------------------|-----------------------------------|

 

e|----------------|----------------------------------------|

B|----------------|----------------------------------------|

G|------7---------|------7--8--8--8--8--8--8--7-----7------|

D|--10-----10--8--|--10--------------------------8-----10--|

A|----------------|----------------------------------------|

E|----------------|----------------------------------------|

 

 

Pre-Chorus/Pre-Estribillo:

 

e|-------------------------------------|--------------------------------------|

B|------------8--8--8------------------|-------------------------8------------|

G|--7--8--10-----------8--7------7--8--|--8--10--10--10--10--10---------------|

D|---------------------------10--------|----------------------------8--10--8--|

A|-------------------------------------|--------------------------------------|

E|-------------------------------------|--------------------------------------|

 

e|------------------------------|--------------------------------------|

B|------------------------------|------------------------8------8--10--|

G|--7--8--7--8--10--10--7/5-----|--7--8--7--8--7--8--10-----10---------|

D|---------------------------8--|--------------------------------------|

A|------------------------------|--------------------------------------|

E|------------------------------|--------------------------------------|

 

 

Chorus/Estribillo:

 

e|--8-------------------------|------8-------------------------|

B|-----11--11------8----------|--11-----11--11------8----------|

G|-------------10-----10--10--|-----------------10-----10--10--|

D|----------------------------|--------------------------------|

A|----------------------------|--------------------------------|

E|----------------------------|--------------------------------|

 

e|--------------------|------8------8------|------------------8--8--10--8----------|

B|------------11--10--|--10-----10-----11--|-------------------------------11--11--|

G|--7--10--7----------|--------------------|--7--8--7--8--10-----------------------|

D|--------------------|--------------------|---------------------------------------|

A|--------------------|--------------------|---------------------------------------|

E|--------------------|--------------------|---------------------------------------|

 

e|--8-------------------------|------8-------------------------|

B|-----11--11------8----------|--11-----11--11------8----------|

G|-------------10-----10--10--|-----------------10-----10--10--|

D|----------------------------|--------------------------------|

A|----------------------------|--------------------------------|

E|----------------------------|--------------------------------|

 

e|-----------------------------------|---------------------------------------------|

B|-----------------------------9--8--|---------------------------------------------|

G|--7--10--8--7------7--10--7--------|--7--8--7--7--8--10--7-----------------------|

D|---------------10------------------|------------------------10--8--10--10--8--8--|

A|-----------------------------------|---------------------------------------------|

E|-----------------------------------|---------------------------------------------|

 

 

Bridge/Puente:

 

e|--------------------------------8----------8----------8----------8--|

B|--8--10--11--8--10--11--10--11-----10--11-----10--11-----10--11-----|

G|--------------------------------------------------------------------|

D|--------------------------------------------------------------------|

A|--------------------------------------------------------------------|

E|--------------------------------------------------------------------|

 

e|----------10--10--8-----------------|----------------------8--10--8--10--|--13--15--17--20--20--|

B|--10--11-------------11--10--11--8--|--11--11--10--11--10----------------|----------------------|

G|------------------------------------|------------------------------------|--14--15--17----------|

D|------------------------------------|------------------------------------|----------------------|

A|------------------------------------|------------------------------------|----------------------|

E|------------------------------------|------------------------------------|----------------------|

 

 

Outro:

 

e|--------------------------13--11--10--11--10/11/10--------------------------------------|----------|

B|------10--11--13--11--13----------------------------13--11--10--10--11--13--10----------|--10--11--|

G|--10----------------------------------------------------------------------------10--12--|----------|

D|----------------------------------------------------------------------------------------|----------|

A|----------------------------------------------------------------------------------------|----------|

E|----------------------------------------------------------------------------------------|----------|

©2019 by Fefe - Tron544

Sigueme en:

  • YouTube - White Circle
  • Facebook - White Circle
  • Instagram - White Circle
  • Twitter - White Circle
This site was designed with the
.com
website builder. Create your website today.
Start Now