~ TENKAICHI 2 OPENING ~

TABLATURAS ~ By Fefe - Tron544

 

Intro:

 

GUITAR 2:

 

e|-----------------|-----------------|

B|-----------------|-----------------|

G|----------2---5--|----------2---5--|

D|--2---5---2---5--|--2---5---2---5--|

A|--2---5---0---3--|--2---5---0---3--|

E|--0---3----------|--0---3----------|

 

GUITAR 1:

 

e|--7--5---5----------------------5-----5--|--7--5---5----------------------5-----5--|

B|------------8---8--7---------5-----8-----|------------8---8--7---------5-----8-----|

G|-----------------------4--7--------------|-----------------------4--7--------------|

D|-----------------------------------------|-----------------------------------------|

A|-----------------------------------------|-----------------------------------------|

E|-----------------------------------------|-----------------------------------------|

 

GUITAR 2:

 

e|-----------------|-----------------|

B|-----------------|-----------------|

G|----------2---5--|----------2---5--|

D|--2---5---2---5--|--2---5---2---5--|

A|--2---5---0---3--|--2---5---0---3--|

E|--0---3----------|--0---3----------|

 

GUITAR 1:

 

e|--9--7---7------------------------7------7--|--9--7---7------------------------7------7--9--|

B|------------10---10--9---------7-----10-----|------------10---10--9---------7-----10--------|

G|-------------------------6--9---------------|-------------------------6--9------------------|

D|--------------------------------------------|-----------------------------------------------|

A|--------------------------------------------|-----------------------------------------------|

E|--------------------------------------------|-----------------------------------------------|

 

GUITAR 2:

 

e|-----------------|-----------------|

B|-----------------|-----------------|

G|----------4---7--|----------4---7--|

D|--4---7---4---7--|--4---7---4---7--|

A|--4---7---2---5--|--4---7---2---5--|

E|--2---5----------|--2---5----------|

 

GUITAR 1:

 

e|--9-/-21--|

B|----------|

G|----------|

D|----------|

A|----------|

E|----------|

 

GUITAR 2:

 

e|-----------------------------------------------------------------------------------------|

B|-----------------------------------------------------------------------------------------|

G|--6--x--x--6--x--x--6--x---6--x--x--6--x--x--6--x---6--x--x--6--x--x--6--x---6--x--x--6--|

D|--6--x--x--6--x--x--6--x---6--x--x--6--x--x--6--x---6--x--x--6--x--x--6--x---6--x--x--6--|

A|--4--x--x--4--x--x--4--x---4--x--x--4--x--x--4--x---4--x--x--4--x--x--4--x---4--x--x--4--|

E|-----------------------------------------------------------------------------------------|

 

 

Chorus/Estribillo:

 

GUITAR 1:

 

e|----------------------------15--14--15--17--|

B|------------------15------------------------|

G|--16------14--16------16--------------------|

D|--------------------------------------------|

A|--------------------------------------------|

E|--------------------------------------------|

 

GUITAR 2:

 

e|---------------------------------------------------|---------------------------------------------------|

B|---------------------------------------------------|---------------------------------------------------|

G|---------------------------------------------------|---------------------------------------------------|

D|--2--x--x--2--x--x--2--x---2--x--x--2--x--x--2--x--|--5--x--x--5--x--x--5--x---5--x--x--5--x--x--5--x--|

A|--2--x--x--2--x--x--2--x---2--x--x--2--x--x--2--x--|--5--x--x--5--x--x--5--x---5--x--x--5--x--x--5--x--|

E|--0--x--x--0--x--x--0--x---0--x--x--0--x--x--0--x--|--3--x--x--3--x--x--3--x---3--x--x--3--x--x--3--x--|

 

GUITAR 1:

 

e|--19--17--15--14-h-15-p-14------------|

B|------------------------------16------|

G|----------------------------------16--|

D|--------------------------------------|

A|--------------------------------------|

E|--------------------------------------|

 

GUITAR 2:

 

e|---------------------------------------------------|---------------------------------------------------|

B|---------------------------------------------------|---------------------------------------------------|

G|--2--x--x--2--x--x--2--x---2--x--x--2--x--x--2--x--|--5--x--x--5--x--x--5--x---5--x--x--5--x--x--5--x--|

D|--2--x--x--2--x--x--2--x---2--x--x--2--x--x--2--x--|--5--x--x--5--x--x--5--x---5--x--x--5--x--x--5--x--|

A|--0--x--x--0--x--x--0--x---0--x--x--0--x--x--0--x--|--3--x--x--3--x--x--3--x---3--x--x--3--x--x--3--x--|

E|---------------------------------------------------|---------------------------------------------------|

 

GUITAR 1:

 

e|----------------------------15--14--15--17--|

B|------------------15------------------------|

G|--16------14--16------16--------------------|

D|--------------------------------------------|

A|--------------------------------------------|

E|--------------------------------------------|

 

GUITAR 2:

 

e|---------------------------------------------------|---------------------------------------------------|

B|---------------------------------------------------|---------------------------------------------------|

G|---------------------------------------------------|---------------------------------------------------|

D|--2--x--x--2--x--x--2--x---2--x--x--2--x--x--2--x--|--5--x--x--5--x--x--5--x---5--x--x--5--x--x--5--x--|

A|--2--x--x--2--x--x--2--x---2--x--x--2--x--x--2--x--|--5--x--x--5--x--x--5--x---5--x--x--5--x--x--5--x--|

E|--0--x--x--0--x--x--0--x---0--x--x--0--x--x--0--x--|--3--x--x--3--x--x--3--x---3--x--x--3--x--x--3--x--|

 

GUITAR 1:

 

e|--19--17--15--14------------|

B|--------------------16------|

G|------------------------16--|

D|----------------------------|

A|----------------------------|

E|----------------------------|

 

GUITAR 2:

 

e|---------------------------------------------------|---------------------------------------------------|

B|---------------------------------------------------|---------------------------------------------------|

G|--2--x--x--2--x--x--2--x---5--x--x--5--x--x--5--x--|--7--x--x--7--x--x--7--x---7--x--x--7--x--x--7--x--|

D|--2--x--x--2--x--x--2--x---5--x--x--5--x--x--5--x--|--7--x--x--7--x--x--7--x---7--x--x--7--x--x--7--x--|

A|--0--x--x--0--x--x--0--x---3--x--x--3--x--x--3--x--|--5--x--x--5--x--x--5--x---5--x--x--5--x--x--5--x--|

E|---------------------------------------------------|---------------------------------------------------|

 

 

Verse/Estrofa:

 

GUITAR 2:

 

e|----------------------------------|----------------------------------|

B|----------------------------------|----------------------------------|

G|----------4---7------------4---7--|----------4---7------------4---7--|

D|--4---7---4---7----4---7---4---7--|--4---7---4---7----4---7---4---7--|

A|--4---7---2---5----4---7---2---5--|--4---7---2---5----4---7---2---5--|

E|--2---5------------2---5----------|--2---5------------2---5----------|

 

GUITAR 1:

 

e|--7--5---5----------------------5-----5--|--7--5---5----------------------5-----5--|

B|------------8---8--7---------5-----8-----|------------8---8--7---------5-----8-----|

G|-----------------------4--7--------------|-----------------------4--7--------------|

D|-----------------------------------------|-----------------------------------------|

A|-----------------------------------------|-----------------------------------------|

E|-----------------------------------------|-----------------------------------------|

 

GUITAR 2:

 

e|-----------------|-----------------|

B|-----------------|-----------------|

G|----------2---5--|----------2---5--|

D|--2---5---2---5--|--2---5---2---5--|

A|--2---5---0---3--|--2---5---0---3--|

E|--0---3----------|--0---3----------|

 

GUITAR 1:

 

e|--7--5---5----------------------5-----5--|--7--5---5------------|

B|------------8---8--7---------5-----8-----|------------8---8--7--|

G|-----------------------4--7--------------|----------------------|

D|-----------------------------------------|----------------------|

A|-----------------------------------------|----------------------|

E|-----------------------------------------|----------------------|

 

GUITAR 1:

 

e|-----------------|-------------|

B|-----------------|-------------|

G|----------2---5--|----------2--|

D|--2---5---2---5--|--2---5---2--|

A|--2---5---0---3--|--2---5---0--|

E|--0---3----------|--0---3------|

 

 

Bridge/Puente:

 

e|------------------------------------------------------|------------------------------------------------|

B|------------------------------------------------------|------------------------------------------------|

G|-----------------------2--x---------------------------|-----------------------5--x--x--x---x--x--x--x--|

D|--2--x--x--5--x--2--x--2--x--2--x--x--x---x--x--x--x--|--2--x--x--5--x--2--x--5--x--x--x---x--x--x--x--|

A|--2--x--x--5--x--2--x--0--x--2--x--x--x---x--x--x--x--|--2--x--x--5--x--2--x--3--x--x--x---x--x--x--x--|

E|--0--x--x--3--x--0--x--------0--x--x--x---x--x--x--x--|--0--x--x--3--x--0--x---------------------------|

 

e|-------------------------------------------------------|----------------------------------|

B|-------------------------------------------------------|----------------------------------|

G|------------------------7--x---------------------------|------------------------7------4--|

D|--7--x--x--10--x--7--x--7--x--7--x--x--x---x--x--x--x--|--7--x--x--10--x--7--x--7------4--|

A|--7--x--x--10--x--7--x--5--x--7--x--x--x---x--x--x--x--|--7--x--x--10--x--7--x--5------2--|

E|--5--x--x--8---x--5--x--------5--x--x--x---x--x--x--x--|--5--x--x--8---x--5--x------------|

 

 

Chorus/Estribillo:

 

GUITAR 1:

 

e|----------------------------15--14--15--17--|

B|------------------15------------------------|

G|--16------14--16------16--------------------|

D|--------------------------------------------|

A|--------------------------------------------|

E|--------------------------------------------|

 

GUITAR 2:

 

e|---------------------------------------------------|---------------------------------------------------|

B|---------------------------------------------------|---------------------------------------------------|

G|---------------------------------------------------|---------------------------------------------------|

D|--2--x--x--2--x--x--2--x---2--x--x--2--x--x--2--x--|--5--x--x--5--x--x--5--x---5--x--x--5--x--x--5--x--|

A|--2--x--x--2--x--x--2--x---2--x--x--2--x--x--2--x--|--5--x--x--5--x--x--5--x---5--x--x--5--x--x--5--x--|

E|--0--x--x--0--x--x--0--x---0--x--x--0--x--x--0--x--|--3--x--x--3--x--x--3--x---3--x--x--3--x--x--3--x--|

 

GUITAR 1:

 

e|--19--17--15--14-h-15-p-14------------|

B|------------------------------16------|

G|----------------------------------16--|

D|--------------------------------------|

A|--------------------------------------|

E|--------------------------------------|

 

GUITAR 2:

 

e|---------------------------------------------------|---------------------------------------------------|

B|---------------------------------------------------|---------------------------------------------------|

G|--2--x--x--2--x--x--2--x---2--x--x--2--x--x--2--x--|--5--x--x--5--x--x--5--x---5--x--x--5--x--x--5--x--|

D|--2--x--x--2--x--x--2--x---2--x--x--2--x--x--2--x--|--5--x--x--5--x--x--5--x---5--x--x--5--x--x--5--x--|

A|--0--x--x--0--x--x--0--x---0--x--x--0--x--x--0--x--|--3--x--x--3--x--x--3--x---3--x--x--3--x--x--3--x--|

E|---------------------------------------------------|---------------------------------------------------|

 

 

Outro:

 

GUITAR 1:

 

e|--7--5---5----------------------5-----5--|--7--5---5----------------------5-----5--|

B|------------8---8--7---------5-----8-----|------------8---8--7---------5-----8-----|

G|-----------------------4--7--------------|-----------------------4--7--------------|

D|-----------------------------------------|-----------------------------------------|

A|-----------------------------------------|-----------------------------------------|

E|-----------------------------------------|-----------------------------------------|

 

GUITAR 2:

 

e|-----------------|-----------------|

B|-----------------|-----------------|

G|----------2---5--|----------2---5--|

D|--2---5---2---5--|--2---5---2---5--|

A|--2---5---0---3--|--2---5---0---3--|

E|--0---3----------|--0---3----------|

 

GUITAR 1:

 

e|--9--7---7------------------------7------7--|--9--7---7------------------------7------7--9--|

B|------------10---10--9---------7-----10-----|------------10---10--9---------7-----10--------|

G|-------------------------6--9---------------|-------------------------6--9------------------|

D|--------------------------------------------|-----------------------------------------------|

A|--------------------------------------------|-----------------------------------------------|

E|--------------------------------------------|-----------------------------------------------|

 

GUITAR 2:

 

e|-----------------|-----------------|-----|

B|-----------------|-----------------|-----|

G|----------4---7--|----------4---7--|-----|

D|--4---7---4---7--|--4---7---4---7--|--4--|

A|--4---7---2---5--|--4---7---2---5--|--4--|

E|--2---5----------|--2---5----------|--2--|

Tenkaichi 2 Opening - Tron544
00:00 / 00:00

©2019 by Fefe - Tron544

Sigueme en:

  • YouTube - White Circle
  • Facebook - White Circle
  • Instagram - White Circle
  • Twitter - White Circle
This site was designed with the
.com
website builder. Create your website today.
Start Now