TELECASTER STRIPES

POLKADOT STINGRAY

TABS ~ By Fefe (Tron544)
 

Intro:

e|--8----------------------------------------8-8-8-8-8--#-#-#-8--|
B|----11-8-11-8----8-------------------------8-8-8-8-8--#-#-#-8--|
G|--------------10---10-8-10-8----8----10------------------------|
D|-----------------------------10--------------------------------|
A|---------------------------------------------------------------|
E|---------------------------------------------------------------|

e|----6/8--8-#-#------#-#-----------------------------|
B|----6/8--8-#-#------#-#-8---8--#-#-8--8-#-#----#-#--|
G|---------------8b-8-----10--10-#-#-8--8-#-#-10-#-#--|
D|----------------------------------------------------|
A|----------------------------------------------------|
E|----------------------------------------------------|

e|--8-#-#-6/8--8-#-#-11-8-#-#-13-13-13-13--11-11-11-11--8-#-#--|
B|--8-#-#-6/8--8-#-#-11-8-#-#-13-13-13-13--11-11-11-11--8-#-#--|
G|-------------------------------------------------------------|
D|-------------------------------------------------------------|
A|-------------------------------------------------------------|
E|-------------------------------------------------------------|

e|--8-#-#-6/8--8-#-#------#-#-----------------------------|
B|--8-#-#-6/8--8-#-#------#-#-8---8--#-#-8--8-#-#-8--#-#--|
G|-------------------8b-8-----10--10-#-#-7--7-#-#-10-#-#--|
D|--------------------------------------------------------|
A|--------------------------------------------------------|
E|--------------------------------------------------------|

e|--8-8-8-8-8-#-#-11-11-11-11-11-#-#-8-#-#-11/13--13-#-#-8-8-#-#--|
B|--8-8-8-8-8-#-#-11-11-11-11-11-#-#-8-#-#-11/13--13-#-#-8-8-#-#--|
G|----------------------------------------------------------------|
D|----------------------------------------------------------------|
A|----------------------------------------------------------------|
E|----------------------------------------------------------------|

 


Verse/Estrofa:

e|--8--------------------------------------#-#-#---------------------------#-#-8--|
B|--8--------------------------------------#-#-#-----------------8-8-8-----#-#-8--|
G|---------------------------------------------------------------8-8-8-10---------|
D|---------------------------------------------------------------------10---------|
A|--------------------------------------------------------------------------------|
E|--------------------------------------------------------------------------------|

 


Re-Intro:

e|----6/8--8-#-#------#-#-----------------------------|
B|----6/8--8-#-#------#-#-8---8--#-#-8--8-#-#----#-#--|
G|---------------8b-8-----10--10-#-#-8--8-#-#-10-#-#--|
D|----------------------------------------------------|
A|----------------------------------------------------|
E|----------------------------------------------------|

e|--8-#-#-6/8--8-#-#-11-8-#-#-13-13-13-13--11-11-11-11--8-#-#--|
B|--8-#-#-6/8--8-#-#-11-8-#-#-13-13-13-13--11-11-11-11--8-#-#--|
G|-------------------------------------------------------------|
D|-------------------------------------------------------------|
A|-------------------------------------------------------------|
E|-------------------------------------------------------------|

e|--8-#-#-6/8--8-#-#------#-#-----------------------------|
B|--8-#-#-6/8--8-#-#------#-#-8---8--#-#-8--8-#-#-8--#-#--|
G|-------------------8b-8-----10--10-#-#-7--7-#-#-10-#-#--|
D|--------------------------------------------------------|
A|--------------------------------------------------------|
E|--------------------------------------------------------|

e|--8-8-8-8-8-#-#-11-11-11-11-11-#-#-8-#-#-11/13--13-#-#-8-8-#-#--|
B|--8-8-8-8-8-#-#-11-11-11-11-11-#-#-8-#-#-11/13--13-#-#-8-8-#-#--|
G|----------------------------------------------------------------|
D|----------------------------------------------------------------|
A|----------------------------------------------------------------|
E|----------------------------------------------------------------|

 


Verse/Estrofa:

e|--8---------------------------------------------------|
B|--8--#-#------#-#------8-------------------------#-#--|
G|-----#-#-8h10-#-#------8----10p8-#----#-#--------#-#--|
D|------------------8h10-----------#-10-#-#-8h10-8------|
A|------------------------------------------------------|
E|------------------------------------------------------|

e|------------------------------------------|
B|------------------------------------------|
G|--8----#-#----#-#--------10p8-#-8-#-#-7---|
D|-------#-#-10-#-#-8-----------------------|
A|------------------------------------------|
E|------------------------------------------|

e|--8--------10/11-10-----------------------------15-13-11-10--|
B|-----8--------------11-11/13-13-13-13-p11--------------------|
G|--------8---------------------------------13-12--------------|
D|-------------------------------------------------------------|
A|-------------------------------------------------------------|
E|-------------------------------------------------------------|

e|-----10h11p10-----------------------------8-----------------------------8h11p8--|
B|--------------11-9-8-------------------------------------8h11------8h11---------|
G|---------------------8------8-8-8-8-8-7-8-8---------8h10------8h10--------------|
D|-----------------------8-----------------------8h10-----------------------------|
A|--------------------------------------------------------------------------------|
E|--------------------------------------------------------------------------------|


Chorus/Estribillo:

e|--11-8----8-11-11p8----8-11-8----8-11-11p8----8-11-8----8-11-11p8----8-11-#-#-11-#-#-8--8--|
B|-------11-----------11--------11-----------11--------11-----------11---11-#-#-11-#-#-8--8--|
G|-------------------------------------------------------------------------------------------|
D|-------------------------------------------------------------------------------------------|
A|-------------------------------------------------------------------------------------------|
E|-------------------------------------------------------------------------------------------|

e|--11-8----8-11-11p8----8-11-8----8-11-11p8----8-11-8----8-11-11p8----8-11-8----8------------|
B|-------11-----------11--------11-----------11--------11-----------11--------11---11-8-------|
G|--------------------------------------------------------------------------------------10-8--|
D|--------------------------------------------------------------------------------------------|
A|--------------------------------------------------------------------------------------------|
E|--------------------------------------------------------------------------------------------|

e|--11-8----8-11-11p8----8-11-8----8-11-11p8----8-11-8----8-11-11p8----8-11-#-#-11-#-#-8--8--|
B|-------11-----------11--------11-----------11--------11-----------11---11-#-#-11-#-#-8--8--|
G|-------------------------------------------------------------------------------------------|
D|-------------------------------------------------------------------------------------------|
A|-------------------------------------------------------------------------------------------|
E|-------------------------------------------------------------------------------------------|

e|--11-8----8-11-11p8----8-11-8----8-11-11p8----8-11-8----8---------11--8---------|
B|-------11-----------11--------11-----------11--------11---11-8----11--8---------|
G|---------------------------------------------------------------10---------------|
D|--------------------------------------------------------------------------------|
A|--------------------------------------------------------------------------------|
E|--------------------------------------------------------------------------------|

DOWNLOAD TABS!
 

<- GO BACK

Telecaster Stripes - Tron544
00:00 / 00:00
DONATE%20BUTTON%20(EN)_edited.png

Re-Intro:

e|--8-#-#-6/8--8-#-#------#-#-----------------------------|
B|--8-#-#-6/8--8-#-#------#-#-8---8--#-#-8--8-#-#----#-#--|
G|-------------------8b-8-----10--10-#-#-8--8-#-#-10-#-#--|
D|--------------------------------------------------------|
A|--------------------------------------------------------|
E|--------------------------------------------------------|

e|--8-#-#-6/8--8-#-#-11-8-#-#-13-13-13-13--11-11-11-11--8-#-#--|
B|--8-#-#-6/8--8-#-#-11-8-#-#-13-13-13-13--11-11-11-11--8-#-#--|
G|-------------------------------------------------------------|
D|-------------------------------------------------------------|
A|-------------------------------------------------------------|
E|-------------------------------------------------------------|

e|--8-#-#-6/8--8-#-#------#-#-----------------------------|
B|--8-#-#-6/8--8-#-#------#-#-8---8--#-#-8--8-#-#-8--#-#--|
G|-------------------8b-8-----10--10-#-#-7--7-#-#-10-#-#--|
D|--------------------------------------------------------|
A|--------------------------------------------------------|
E|--------------------------------------------------------|

e|--8-8-8-8-8-#-#-11-11-11-11-11-#-#-8-8--11/13--8----|
B|--8-8-8-8-8-#-#-11-11-11-11-11-#-#-8-8--11/13--8----|
G|----------------------------------------------------|
D|----------------------------------------------------|
A|----------------------------------------------------|
E|----------------------------------------------------|

 


Verse/Estrofa:

e|-----------------------------------------------------------------|
B|-----------------------------------------------------------------|
G|--8-------------------10-#-#-8------------8----------------------|
D|----#-#-10-#-#-8h10-#----------#-#-8-9-10---#-#-10-#-8-#-#-8h10--|
A|-----------------------------------------------------------------|
E|-----------------------------------------------------------------|


e|------------------------------------------------8-------------------------------#-#-#-#-#--|
B|--------------------------------------------------11-8-11-8----8----------------#-#-#-#-#--|
G|--8-------------------10-#-#-8--7-7-7-7-8-8-8-8-------------10---10-8-10-8-----------------|
D|----#-#-10-#-#-8h10-#-----------8-8-8-8-8-8-8-8----------------------------10--------------|
A|-------------------------------------------------------------------------------------------|
E|-------------------------------------------------------------------------------------------|


Chorus/Estribillo:

e|--11-8----8-11-11p8----8-11-8----8-11-11p8----8-11-8----8-11-11p8----8-11-#-#-11-#-#-8--8--|
B|-------11-----------11--------11-----------11--------11-----------11---11-#-#-11-#-#-8--8--|
G|-------------------------------------------------------------------------------------------|
D|-------------------------------------------------------------------------------------------|
A|-------------------------------------------------------------------------------------------|
E|-------------------------------------------------------------------------------------------|

e|--11-8----8-11-11p8----8-11-8----8-11-11p8----8-11-8----8-11-11p8----8-11-8----8------------|
B|-------11-----------11--------11-----------11--------11-----------11--------11---11-8-------|
G|--------------------------------------------------------------------------------------10-8--|
D|--------------------------------------------------------------------------------------------|
A|--------------------------------------------------------------------------------------------|
E|--------------------------------------------------------------------------------------------|

e|--11-8----8-11-11p8----8-11-8----8-11-11p8----8-11-8----8-11-11p8----8-11-#-#-11-#-#-8--8--|
B|-------11-----------11--------11-----------11--------11-----------11---11-#-#-11-#-#-8--8--|
G|-------------------------------------------------------------------------------------------|
D|-------------------------------------------------------------------------------------------|
A|-------------------------------------------------------------------------------------------|
E|-------------------------------------------------------------------------------------------|

e|--11-8----8-11-11p8----8-11-8----8-11-11p8----8-11-8----8---------11--8---------|
B|-------11-----------11--------11-----------11--------11---11-8----11--8---------|
G|---------------------------------------------------------------10---------------|
D|--------------------------------------------------------------------------------|
A|--------------------------------------------------------------------------------|
E|--------------------------------------------------------------------------------|

 


Solo:

e|---------------------------------------------------------------------------|
B|------------------------------------------11b-11pb-11pb-11-9-8h9p8---------|
G|------------8h10p8-8-8-10-10b-r-8h10p8-----------------------------8-10-8--|
D|-------8-10----------------------------10----------------------------------|
A|--8/10---------------------------------------------------------------------|
E|---------------------------------------------------------------------------|

e|-------11-11--8------11b---11p8----8---------------13----|
B|-------11-11----11-8------------11---11-8-------11-------|
G|---10b------------------------------------10/12----------|
D|---------------------------------------------------------|
A|---------------------------------------------------------|
E|---------------------------------------------------------|

e|--18b-b-18--16-15h16p15-------------------------|
B|------------------------16--18b--18-16-15-16----|
G|------------------------------------------------|
D|------------------------------------------------|
A|------------------------------------------------|
E|------------------------------------------------|

e|-----------------------------8------------------------------|
B|--11-#-9-#-#-8-----------------11-8-11-8----8---------------|
G|---------------#-10-#-#-8-7--------------10---10-8-10-8-----|
D|--------------------------------------------------------10--|
A|------------------------------------------------------------|
E|------------------------------------------------------------|


Last Chorus/Ultimo Estribillo:

e|---------------------------------------------------------------------------------------------|
B|---------------------------------------------------------------------------------------------|
G|--6/8--------------------------------10-#-#-8-#-#-8h10-10-#-#-8--10-#-#-8-#-#-8h10-10-#-#-8--|
D|---------------------------------------------------------------------------------------------|
A|---------------------------------------------------------------------------------------------|
E|---------------------------------------------------------------------------------------------|

e|-----------------------------------7------|
B|------------------------------9----7------|
G|--10-#-#-8-#-#-8h10-10-#-#-8--6-----------|
D|------------------------------------------|
A|------------------------------------------|
E|------------------------------------------|

e|--12-9----9-12-12p9----9-12-9----9-12-12p9----9-12-9----9-12-12p9----9-12-#-#-12-#-#-9--9--|
B|-------12-----------12--------12-----------12--------12-----------12---12-#-#-12-#-#-9--9--|
G|-------------------------------------------------------------------------------------------|
D|-------------------------------------------------------------------------------------------|
A|-------------------------------------------------------------------------------------------|
E|-------------------------------------------------------------------------------------------|

e|--12-9----9-12-12p9----9-12-9----9-12-12p9----9-12-9----9-12-12p9----9-12-9----9------------|
B|-------12-----------12--------12-----------12--------12-----------12--------12---12-9-------|
G|--------------------------------------------------------------------------------------11-9--|
D|--------------------------------------------------------------------------------------------|
A|--------------------------------------------------------------------------------------------|
E|--------------------------------------------------------------------------------------------|

e|--12-9----9-12-12p9----9-12-9----9-12-12p9----9-12-9----9-12-12p9----9-12-#-#-12-#-#-9--9--|
B|-------12-----------12--------12-----------12--------12-----------12---12-#-#-12-#-#-9--9--|
G|-------------------------------------------------------------------------------------------|
D|-------------------------------------------------------------------------------------------|
A|-------------------------------------------------------------------------------------------|
E|-------------------------------------------------------------------------------------------|

e|--12-9----9-12-12p9----9-12-9----9-12-12p9----9-12-9----9----------12-12-12-12-14-14-14-14--|
B|-------12-----------12--------12-----------12--------12---12-9-----12-12-12-12-14-14-14-14--|
G|---------------------------------------------------------------11---------------------------|
D|--------------------------------------------------------------------------------------------|
A|--------------------------------------------------------------------------------------------|
E|--------------------------------------------------------------------------------------------|


Outro:

e|-------------------------------------------------------------|
B|-------------------------------------------------------------|
G|--9-#-#------9-#-#-11b-11--#-#-9-#-#------9-#-#-11b-11--#-#--|
D|--9-#-#-9h11---#-#---------#-#-9-#-#-9h11---#-#---------#-#--|
A|-------------------------------------------------------------|
E|-------------------------------------------------------------|

e|-----------------------------------------------------------------|
B|-----------------------------------------------------------------|
G|--9-#-#------9-#-#-11b-11--#-#-11b-11p9-11p9----------------#-#--|
D|--9-#-#-9h11---#-#---------#-#---------------11p9---------9-#-#--|
A|--------------------------------------------------11-9h11--------|
E|-----------------------------------------------------------------|

e|-------------------------------------------------------------|
B|-------------------------------------------------------------|
G|--9-#-#------9-#-#-11b-11--#-#-9-#-#------9-#-#-11b-11--#-#--|
D|--9-#-#-9h11---#-#---------#-#-9-#-#-9h11---#-#---------#-#--|
A|-------------------------------------------------------------|
E|-------------------------------------------------------------|

e|---------------------------------------------|
B|----------------------------------------9----|
G|--9-#-#------9-#-#-11b-11--#-#-9--9--9--11b--|
D|--9-#-#-9h11---#-#---------#-#-9--9--9-------|
A|---------------------------------------------|
E|---------------------------------------------|

 


Outro Solo:

e|------------------------------------------------|
B|--9---------------------------------12----------|
G|--11b-11-9----------9----9----11/13----13\11-9--|
D|------------11-9h11---11---11-------------------|
A|------------------------------------------------|
E|------------------------------------------------|

e|--#-#-14-#-12-#-#-14-#-12-------------------------------------------------|
B|--#-#-14-#-12-#-#-14-#-12-14b-14p12-14p12------------12-12h14p12----12----|
G|------------------------------------------13p11-1p13-------------13-------|
D|--------------------------------------------------------------------------|
A|--------------------------------------------------------------------------|
E|--------------------------------------------------------------------------|

e|------------------------------------19b-b--19b---19b-19--|
B|--3-4-5-6--7-8-9-10-11-12-13-14-15-----------------------|
G|--3-4-5-6--7-8-9-10-11-12-13-14-15-----------------------|
D|---------------------------------------------------------|
A|---------------------------------------------------------|
E|---------------------------------------------------------|

e|---17-21-19-17-19-17----17--------------------------------------------21----|
B|---------------------21----21-17-19-19-17-19-19b-r-17-19p17----17-----------|
G|------------------------------------------------------------18----18--------|
D|----------------------------------------------------------------------------|
A|----------------------------------------------------------------------------|
E|----------------------------------------------------------------------------|

©2015 by Fefe - Tron544

Sigueme en:

  • YouTube - White Circle
  • Facebook - White Circle
  • Instagram - White Circle
  • Twitter - White Circle
This site was designed with the
.com
website builder. Create your website today.
Start Now