~ TEEN TITANS ~

TABLATURAS ~ By Fefe - Tron544

 

Intro:

 

e|--------------------------------------------------|
B|--------------------------------------------------|
G|-----9-----9-----8-----8-----7-----7-----8-----8--|
D|--------------------------------------------------|
A|--7-----7-----6-----6-----5-----5-----6-----6-----|
E|--------------------------------------------------|

 


Verse/Estrofa:

 

GUITAR 1:

 

e|-------------------------------------------------------|
B|-------------------------------------------------------|
G|---------------------------(2)-x--x--x--x--x--x--x--x--|
D|--(2)-x--x--x--x--x--x--x--(2)-x--x--x--x--x--x--x--x--|
A|--(2)-x--x--x--x--x--x--x--(0)-x--x--x--x--x--x--x--x--|
E|--(0)-x--x--x--x--x--x--x------------------------------|

 

GUITAR 2:

 

e|---------------------------------|
B|--------8--10-b--10--8-----------|
G|--9--9------------------9--7--9--|
D|---------------------------------|
A|---------------------------------|
E|---------------------------------|

 

GUITAR 3:

 

e|--0------5--|
B|--0------5--|
G|--0------5--|
D|--2------7--|
A|--2------7--|
E|--0------5--|

 

GUITAR 1:

 

e|----------------------------------------------------|
B|----------------------------------------------------|
G|----------------------------------------------------|
D|--(2)-x--x--x--x--x--x--x--(2)-x--x--x--x--x--x--x--|
A|--(2)-x--x--x--x--x--x--x--(2)-x--x--x--x--x--x--x--|
E|--(0)-x--x--x--x--x--x--x--(0)-x--x--x--x--x--x--x--|

 

GUITAR 3:

 

e|--0--|
B|--0--|
G|--0--|
D|--2--|
A|--2--|
E|--0--|

 

GUITAR 1:

 

e|---------------------------------------------------------------------------------------------------------------|
B|---------------------------------------------------------------------------------------------------------------|
G|---------------------------(2)-x--x--x--x--x--x--x--x--(4)-x--x--x--x--x--x--x--x--(4)-x--x--x--x--x--x--x--x--|
D|--(2)-x--x--x--x--x--x--x--(2)-x--x--x--x--x--x--x--x--(4)-x--x--x--x--x--x--x--x--(4)-x--x--x--x--x--x--x--x--|
A|--(2)-x--x--x--x--x--x--x--(0)-x--x--x--x--x--x--x--x--(2)-x--x--x--x--x--x--x--x--(2)-x--x--x--x--x--x--x--x--|
E|--(0)-x--x--x--x--x--x--x--------------------------------------------------------------------------------------|

 

GUITAR 2:

 

e|-----------------------------------------|
B|--------8--10--10-b--10--8--10--10-/-12--|
G|--9--9-----------------------------------|
D|-----------------------------------------|
A|-----------------------------------------|
E|-----------------------------------------|

 

GUITAR 3:

 

e|--0------5------7--|
B|--0------5------7--|
G|--0------5------8--|
D|--2------7------9--|
A|--2------7------9--|
E|--0------5------7--|

 


First Chorus/Primer Estribillo:

 

GUITAR 1:

 

e|------------------------------------------------------------------------------------------------------|
B|------------------------------------------------------------------------------------------------------|
G|--(0)-x--x--x--x--x--x--x---------------------------(0)-x--x--x--x--x--x--x---------------------------|
D|--(0)-x--x--x--x--x--x--x--(2)-x--x--x--x--x--x--x--(0)-x--x--x--x--x--x--x--(2)-x--x--x--x--x--x--x--|
A|--(0)-x--x--x--x--x--x--x--(2)-x--x--x--x--x--x--x--(0)-x--x--x--x--x--x--x--(2)-x--x--x--x--x--x--x--|
E|---------------------------(0)-x--x--x--x--x--x--x---------------------------(0)-x--x--x--x--x--x--x--|

 

GUITAR 2:

 

e|----------------------------------------------------------|
B|--10--8--10--8-----------------10--8--10--8---------------|
G|-----------------9--9--7--9-------------------9--9--7--9--|
D|----------------------------------------------------------|
A|----------------------------------------------------------|
E|----------------------------------------------------------|

 

GUITAR 3:

 

e|--5------0------5------0--|
B|--5------0------5------0--|
G|--5------0------5------0--|
D|--7------2------7------2--|
A|--7------2------7------2--|
E|--5------0------5------0--|

 

GUITAR 1:

 

e|--------------------------------------------------------------------------------|
B|--------------------------------------------------------------------------------|
G|--(2)-x--x--x--x--x--x--x--(2)-x--x--x--x--x--x--x--(4)-x--x--x--x--x--x--x--x--|
D|--(2)-x--x--x--x--x--x--x--(2)-x--x--x--x--x--x--x--(4)-x--x--x--x--x--x--x--x--|
A|--(0)-x--x--x--x--x--x--x--(0)-x--x--x--x--x--x--x--(2)-x--x--x--x--x--x--x--x--|
E|--------------------------------------------------------------------------------|

 

GUITAR 2:

 

e|-----------------------------------------------------------10--|
B|-----10--8--10--8--10-b--10--8--10--10-/-12---------8----------|
G|--9----------------------------------------------9-----9-------|
D|---------------------------------------------------------------|
A|---------------------------------------------------------------|
E|---------------------------------------------------------------|

 

GUITAR 3:

 

e|--5------7------7--|
B|--5------7------7--|
G|--5------8------8--|
D|--7------9------9--|
A|--7------9------9--|
E|--5------7------7--|

 


Interlude/Intermedio:

 

e|-------------------------------------------|
B|-------------------------------------------|
G|-------------------------------------------|
D|------5-----5--7---7-b---7--5--7--5--------|
A|--7------7---------------------------7--5--|
E|-------------------------------------------|

 


Verse/Estrofa:

 

GUITAR 1:

 

e|---------------------------------------------------------------------------------------------------------|
B|---------------------------------------------------------------------------------------------------------|
G|---------------------------(2)-x--x--x--x--x--x--x--x----------------------------------------------------|
D|--(2)-x--x--x--x--x--x--x--(2)-x--x--x--x--x--x--x--x--(2)-x--x--x--x--x--x--x--(2)-x--x--x--x--x--x--x--|
A|--(2)-x--x--x--x--x--x--x--(0)-x--x--x--x--x--x--x--x--(2)-x--x--x--x--x--x--x--(2)-x--x--x--x--x--x--x--|
E|--(0)-x--x--x--x--x--x--x------------------------------(0)-x--x--x--x--x--x--x--(0)-x--x--x--x--x--x--x--|

 

GUITAR 2:

 

e|---------------------------------|
B|--------8--10-b--10--8-----------|
G|--9--9------------------9--7--9--|
D|---------------------------------|
A|---------------------------------|
E|---------------------------------|

 

GUITAR 3:

 

e|--0------5------0--|
B|--0------5------0--|
G|--0------5------0--|
D|--2------7------2--|
A|--2------7------2--|
E|--0------5------0--|

 

GUITAR 1:

 

e|----------------------------------------------------|
B|----------------------------------------------------|
G|----------------------------------------------------|
D|--(2)-x--x--x--x--x--x--x--(2)-x--x--x--x--x--x--x--|
A|--(2)-x--x--x--x--x--x--x--(2)-x--x--x--x--x--x--x--|
E|--(0)-x--x--x--x--x--x--x--(0)-x--x--x--x--x--x--x--|

 

GUITAR 3:

 

e|--0--|
B|--0--|
G|--0--|
D|--2--|
A|--2--|
E|--0--|

 

GUITAR 1:

 

e|---------------------------------------------------------------------------------------------------------------|
B|---------------------------------------------------------------------------------------------------------------|
G|---------------------------(2)-x--x--x--x--x--x--x--x--(4)-x--x--x--x--x--x--x--x--(4)-x--x--x--x--x--x--x--x--|
D|--(2)-x--x--x--x--x--x--x--(2)-x--x--x--x--x--x--x--x--(4)-x--x--x--x--x--x--x--x--(4)-x--x--x--x--x--x--x--x--|
A|--(2)-x--x--x--x--x--x--x--(0)-x--x--x--x--x--x--x--x--(2)-x--x--x--x--x--x--x--x--(2)-x--x--x--x--x--x--x--x--|
E|--(0)-x--x--x--x--x--x--x--------------------------------------------------------------------------------------|

 

GUITAR 2:

 

e|-----------------------------------------|
B|--------8--10--10-b--10--8--10--10-/-12--|
G|--9--9-----------------------------------|
D|-----------------------------------------|
A|-----------------------------------------|
E|-----------------------------------------|

 

GUITAR 3:

 

e|--0------5------7--|
B|--0------5------7--|
G|--0------5------8--|
D|--2------7------9--|
A|--2------7------9--|
E|--0------5------7--|

 


Second Chorus/Segundo Estribillo:

 

GUITAR 1:

 

e|------------------------------------------------------------------------------------------------------|
B|------------------------------------------------------------------------------------------------------|
G|--(0)-x--x--x--x--x--x--x---------------------------(0)-x--x--x--x--x--x--x---------------------------|
D|--(0)-x--x--x--x--x--x--x--(2)-x--x--x--x--x--x--x--(0)-x--x--x--x--x--x--x--(2)-x--x--x--x--x--x--x--|
A|--(0)-x--x--x--x--x--x--x--(2)-x--x--x--x--x--x--x--(0)-x--x--x--x--x--x--x--(2)-x--x--x--x--x--x--x--|
E|---------------------------(0)-x--x--x--x--x--x--x---------------------------(0)-x--x--x--x--x--x--x--|

 

GUITAR 2:

 

e|-----------------------------------------------------------|
B|-----10--8--10--8----------------10--8--10--8--8-----------|
G|--9----------------9--7--9----9-------------------9--7--9--|
D|-----------------------------------------------------------|
A|-----------------------------------------------------------|
E|-----------------------------------------------------------|

 

GUITAR 3:

 

e|--5----------------5---------------|
B|--5----8---7---5---5----8---7---5--|
G|--5----------------5---------------|
D|--7----------------7---------------|
A|--7----------------7---------------|
E|--5----------------5---------------|

 

GUITAR 1:

 

e|--------------------------------------------------------------------------------|
B|--------------------------------------------------------------------------------|
G|--(2)-x--x--x--x--x--x--x--(2)-x--x--x--x--x--x--x--(4)-x--x--x--x--x--x--x--x--|
D|--(2)-x--x--x--x--x--x--x--(2)-x--x--x--x--x--x--x--(4)-x--x--x--x--x--x--x--x--|
A|--(0)-x--x--x--x--x--x--x--(0)-x--x--x--x--x--x--x--(2)-x--x--x--x--x--x--x--x--|
E|--------------------------------------------------------------------------------|

 

GUITAR 2:

 

e|-----------------------------------------------------------10--|
B|-----10--8--10--8--10-b--10--8--10--10-/-12---------8----------|
G|--9----------------------------------------------9-----9-------|
D|---------------------------------------------------------------|
A|---------------------------------------------------------------|
E|---------------------------------------------------------------|

 

GUITAR 3:

 

e|--5--------------------------------7--|
B|--5----8---7---8-------7--------7--7--|
G|--5-----------------------8--------8--|
D|--7-----------------9--------9-----9--|
A|--7-----------------------------------|
E|--5-----------------------------------|

 


Outro:

 

e|-------------------------------------------------------------------|
B|-------------------------------------------------------------------|
G|-------------------------------------------------------------------|
D|------5-----5--7---7-b---7--5--7--5-----------------5--------------|
A|--7------7---------------------------7--5--7--7--7-----7--5-----7--|
E|-------------------------------------------------------------7-----|

 

 

Teen Titans Theme Song (Backing Track) - Tron544
00:00 / 00:00

©2019 by Fefe - Tron544

Sigueme en:

  • YouTube - White Circle
  • Facebook - White Circle
  • Instagram - White Circle
  • Twitter - White Circle
This site was designed with the
.com
website builder. Create your website today.
Start Now