TARGET ~AKAI SHOUGEKI~

DIGIMON ADVENTURE 02

TABS ~ By Fefe (Tron544)

 

Intro:

 

GUITAR 1:

 

e|------------|------------|----------------------|

B|------------|------------|----------------------|

G|------------|---------5--|---------5------7--7--|

D|--(5)-x--x--|--5------5--|--5------5------7--7--|

A|--(5)-x--x--|--5------3--|--5------3------5--5--|

E|--(3)-x--x--|--3---------|--3-------------------|

 

GUITAR 2:

 

e|----------------------------------|----------------------------------|

B|--10----11--10----8-----------13--|--10----11--10----8-----------13--|

G|---------------------10--9--------|---------------------10--9--------|

D|----------------------------------|----------------------------------|

A|----------------------------------|----------------------------------|

E|----------------------------------|----------------------------------|

 

 

Verse/Estrofa:

 

GUITAR 1:

 

e|---------------------------------------------|---------------------------------------------|

B|---------------------------------------------|---------------------------------------------|

G|---------------------------------------------|------------------------5--x--x--5--x--x--5--|

D|--5--x--x--5--x--x--5---7--x--x--7--x--x--7--|--8--x--x--8--x--x--8---5--x--x--5--x--x--5--|

A|--5--x--x--5--x--x--5---8--x--x--8--x--x--8--|--8--x--x--8--x--x--8---3--x--x--3--x--x--3--|

E|--3--x--x--3--x--x--3---5--x--x--5--x--x--5--|--6--x--x--6--x--x--6------------------------|

 

GUITAR 2:

 

e|-------------------------|-----------------------------|

B|-------------------------|-----------------------------|

G|--7--7--7--5----------5--|--8--7--5--3--3--5-----3--5--|

D|--------------3--3-------|--------------------5--------|

A|-------------------------|-----------------------------|

E|-------------------------|-----------------------------|

 

GUITAR 1:

 

e|---------------------------------------------|---------------------------------------------|

B|---------------------------------------------|---------------------------------------------|

G|---------------------------------------------|---------------------------------------------|

D|--5--x--x--5--x--x--5---7--x--x--7--x--x--7--|--8--x--x--8--x--x--x---8--8--x--8--8--8--8--|

A|--5--x--x--5--x--x--5---8--x--x--8--x--x--8--|--8--x--x--8--x--x--x---8--8--x--8--8--8--8--|

E|--3--x--x--3--x--x--3---5--x--x--5--x--x--5--|--6--x--x--6--x--x--x---6--6--x--6--6--6--6--|

 

GUITAR 2:

 

e|--------------------|-----------------|

B|--------------------|-----------------|

G|--7--7--7--5--------|--------3--------|

D|--------------3--3--|--3--5-----5--5--|

A|--------------------|-----------------|

E|--------------------|-----------------|

 

GUITAR 1:

 

e|---------------------------------------------|---------------------------------------------|

B|---------------------------------------------|---------------------------------------------|

G|---------------------------------------------|------------------------5--x--x--5--x--x--5--|

D|--5--x--x--5--x--x--5---7--x--x--7--x--x--7--|--8--x--x--8--x--x--8---5--x--x--5--x--x--5--|

A|--5--x--x--5--x--x--5---8--x--x--8--x--x--8--|--8--x--x--8--x--x--8---3--x--x--3--x--x--3--|

E|--3--x--x--3--x--x--3---5--x--x--5--x--x--5--|--6--x--x--6--x--x--6------------------------|

 

GUITAR 2:

 

e|-------------------------|-----------------------------|

B|-------------------------|-----------------------------|

G|--7--7--7--5----------5--|--8--7--5--3--3--5-----3--5--|

D|--------------3--3-------|--------------------5--------|

A|-------------------------|-----------------------------|

E|-------------------------|-----------------------------|

 

GUITAR 1:

 

e|---------------------------------------------|---------------------------------------------|

B|---------------------------------------------|---------------------------------------------|

G|---------------------------------------------|---------------------------------------------|

D|--5--x--x--5--x--x--5---7--x--x--7--x--x--7--|--8--x--x--8--x--x--x---8--8--x--8--8--8--8--|

A|--5--x--x--5--x--x--5---8--x--x--8--x--x--8--|--8--x--x--8--x--x--x---8--8--x--8--8--8--8--|

E|--3--x--x--3--x--x--3---5--x--x--5--x--x--5--|--6--x--x--6--x--x--x---6--6--x--6--6--6--6--|

 

GUITAR 2:

 

e|--------------------------|-----------|

B|-----------6--------------|-----------|

G|--7--7--7-----7--5--5--7--|-----------|

D|--------------------------|--8--5--5--|

A|--------------------------|-----------|

E|--------------------------|-----------|

 

 

Pre-Chorus/Pre-Estribillo:

 

GUITAR 1:

 

e|------------|------------|

B|------------|------------|

G|--5---------|--7---------|

D|--5------3--|--7------5--|

A|--3------3--|--5------5--|

E|---------1--|---------3--|

 

GUITAR 2:

 

e|----------------------------|-----------------|

B|----------------------------|-----------6-----|

G|-----------7--5-------5-----|--5--5--5--------|

D|--5--5--5----------8-----8--|--------------8--|

A|----------------------------|-----------------|

E|----------------------------|-----------------|

 

GUITAR 3:

 

e|------------------|------------------|

B|--10--11--13--10--|--11--13--15--13--|

G|------------------|------------------|

D|------------------|------------------|

A|------------------|------------------|

E|------------------|------------------|

 

GUITAR 1:

 

e|-------------------------------------------------------|-----------------------------------------|

B|-------------------------------------------------------|-----------------------------------------|

G|-------------------------------------------------------|--7---7---7---7---7---5-/-7---7---7---7--|

D|--(5)-x--x--x---x--x--x--x---(5)-x--x--x---x--x--x--x--|--7---7---7---7---7---5-/-7---7---7---7--|

A|--(5)-x--x--x---x--x--x--x---(5)-x--x--x---x--x--x--x--|--5---5---5---5---5---3-/-5---5---5---5--|

E|--(3)-x--x--x---x--x--x--x---(3)-x--x--x---x--x--x--x--|-----------------------------------------|

 

GUITAR 2:

 

e|----------------------------------------|-----------------|

B|--------------6-------------------6-----|-----------------|

G|--5--5--8--5-----8----8--8--7--5-----8--|--7--8--7--8--7--|

D|----------------------------------------|-----------------|

A|----------------------------------------|-----------------|

E|----------------------------------------|-----------------|

Target ~Akai Shougeki~ - Tron544
00:00 / 00:00
DONATE%20BUTTON%20(EN)_edited.png

Chorus/Estribillo:

 

GUITAR 1:

 

e|-------------------|-------------------|

B|-------------------|-------------------|

G|-------------------|--5------7------8--|

D|--5------7------8--|--5------8------8--|

A|--5------8------8--|--3------5------6--|

E|--3------5------6--|-------------------|

 

GUITAR 2:

 

e|---------------------------------|--------------------------|

B|-----6-----6-h-8--8--6-----------|--------------------------|

G|--7-----7---------------7--5--7--|-----5--7--5--5-----------|

D|---------------------------------|--8--------------8--8--5--|

A|---------------------------------|--------------------------|

E|---------------------------------|--------------------------|

 

GUITAR 3:

 

e|-----------|-----------|

B|--4--4--3--|--9--9--8--|

G|--3--3--3--|--8--8--8--|

D|-----------|-----------|

A|-----------|-----------|

E|-----------|-----------|

 

GUITAR 1:

 

e|-------------------|-------------------|

B|-------------------|-------------------|

G|-------------------|--5------7------8--|

D|--5------7------8--|--5------8------8--|

A|--5------8------8--|--3------5------6--|

E|--3------5------6--|-------------------|

 

GUITAR 2:

 

e|---------------------------------|--------------------------------|

B|-----6-----6-h-8--8--6-----------|-----------------------------8--|

G|--7-----7---------------7--5--7--|-----5--7--5-----5-----5--7-----|

D|---------------------------------|--8-----------8-----8-----------|

A|---------------------------------|--------------------------------|

E|---------------------------------|--------------------------------|

 

GUITAR 3:

 

e|-----------|

B|--4--4--3--|

G|--3--3--3--|

D|-----------|

A|-----------|

E|-----------|

 

GUITAR 1:

 

e|-------------------|-------------------|

B|-------------------|-------------------|

G|-------------------|--5------7------8--|

D|--5------7------8--|--5------8------8--|

A|--5------8------8--|--3------5------6--|

E|--3------5------6--|-------------------|

 

GUITAR 2:

 

e|---------------------------------|--------------------------|

B|-----6-----6-h-8--8--6-----------|--------------------------|

G|--7-----7---------------7--5--7--|-----5--7--5--5-----------|

D|---------------------------------|--8--------------8--8--5--|

A|---------------------------------|--------------------------|

E|---------------------------------|--------------------------|

 

GUITAR 3:

 

e|-----------|-----------|

B|--4--4--3--|--9--9--8--|

G|--3--3--3--|--8--8--8--|

D|-----------|-----------|

A|-----------|-----------|

E|-----------|-----------|

 

GUITAR 1:

 

e|-------------------|-------------------|-----------------------|

B|-------------------|-------------------|-----------------------|

G|-------------------|--5------7------8--|-----------------------|

D|--5------7------8--|--5------8------8--|--5--x--x--5--x--x--5--|

A|--5------8------8--|--3------5------6--|--5--x--x--5--x--x--5--|

E|--3------5------6--|-------------------|--3--x--x--3--x--x--3--|

 

GUITAR 2:

 

e|---------------------------------|--------------------------------|------------------------------|

B|-----6-----6-h-8--8--6-----------|-----------------------------8--|--8--6-----8--6-----6-h-8--8--|

G|--7-----7---------------7--5--7--|-----5--7--5-----5-----5--7-----|--------7--------7------------|

D|---------------------------------|--8-----------8-----8-----------|------------------------------|

A|---------------------------------|--------------------------------|------------------------------|

E|---------------------------------|--------------------------------|------------------------------|

 

GUITAR 3:

 

e|-----------|

B|--4--4--3--|

G|--3--3--3--|

D|-----------|

A|-----------|

E|-----------|

 

 

Outro:

 

GUITAR 1:

 

e|------------|---------------|

B|------------|---------------|

G|---------5--|---------------|

D|--5------5--|--5----5----5--|

A|--5------3--|--5----5----5--|

E|--3---------|--3----3----3--|

 

GUITAR 2:

 

e|----------------------------------|

B|--10----11--10----8-----------13--|

G|---------------------10--9--------|

D|----------------------------------|

A|----------------------------------|

E|----------------------------------|

©2015 by Fefe - Tron544

Sigueme en:

  • YouTube - White Circle
  • Facebook - White Circle
  • Instagram - White Circle
  • Twitter - White Circle
This site was designed with the
.com
website builder. Create your website today.
Start Now