~ TAPION'S THEME ~

TABLATURAS ~ By Fefe - Tron544
 

e|----------|---------------------------------------------|
B|----------|----------11-/-13--11--9--9-h-11----------8--|
G|----------|--10----------------------------------10-----|
D|--10--10--|---------------------------------------------|
A|----------|---------------------------------------------|
E|----------|---------------------------------------------|

 

e|--------------------------------------------|
B|--8-h-9----9--9---9-/-11--9--8--------------|
G|--------------------------------------------|
D|------------------------------------10--10--|
A|--------------------------------------------|
E|--------------------------------------------|

 

e|----------------------------------------------------------------------------------------|
B|----------11-/-13--11--9--9-h-11----------8--8-h-9----9--8------------------------------|
G|--10----------------------------------10---------------------10--8--8-/-10--------------|
D|--------------------------------------------------------------------------------10--10--|
A|----------------------------------------------------------------------------------------|
E|----------------------------------------------------------------------------------------|

 

e|---------------------------------------------------------------------------------------|
B|----------11-/-13--11--9--9-h-11----------8--8-h-9----9--9---9-/-11--9--8--------------|
G|--10----------------------------------10-----------------------------------------------|
D|-------------------------------------------------------------------------------10--10--|
A|---------------------------------------------------------------------------------------|
E|---------------------------------------------------------------------------------------|

 

e|----------------------------------------------------------------------------|
B|----------11-/-13--11--9--9-h-11----------8--8-h-9----9--8------------------|
G|--10----------------------------------10---------------------10--8--8-/-10--|
D|----------------------------------------------------------------------------|
A|----------------------------------------------------------------------------|
E|----------------------------------------------------------------------------|

Tapion's Theme - Tron544
00:00 / 00:00

©2019 by Fefe - Tron544

Sigueme en:

  • YouTube - White Circle
  • Facebook - White Circle
  • Instagram - White Circle
  • Twitter - White Circle
This site was designed with the
.com
website builder. Create your website today.
Start Now