TAIYOU TO TSUKI NO CROSS

NOUCOME

TABS ~ By Fefe (Tron544)

 

Intro:

 

GUITAR 1:

 

e|--------------------------------------|

B|--------------------------------------|

G|--2--2--2--2--2--2--2--2--2--2--2--2--|

D|--2--2--2--2--2--2--2--2--2--2--2--2--|

A|--0--0--0--0--0--0--0--0--0--0--0--0--|

D|--------------------------------------|

 

GUITAR 2:

 

e|--15--------------------12--13--|

B|-------12--13---13--15----------|

G|--------------------------------|

D|--------------------------------|

A|--------------------------------|

D|--------------------------------|

 

GUITAR 1:

 

e|-------------------------------------|

B|-------------------------------------|

G|-------------------------------------|

D|--3--3--3--3--3--3--3--3--3--3--3--3-|

A|--3--3--3--3--3--3--3--3--3--3--3--3-|

D|--3--3--3--3--3--3--3--3--3--3--3--3-|

 

GUITAR 2:

 

e|--15----------15-/-17--15---15--13--12--13--|

B|------13--13--------------------------------|

G|--------------------------------------------|

D|--------------------------------------------|

A|--------------------------------------------|

D|--------------------------------------------|

GUITAR 1:

 

e|-----------------------------------------------------------------------------|

B|-----------------------------------------------------------------------------|

G|-----------------------------------------------------------------------------|

D|--5--5--5--5--5--5---5--5--5--5--5--5---2--2--2--2--2--2---2--2--2--2--2--2--|

A|--5--5--5--5--5--5---5--5--5--5--5--5---2--2--2--2--2--2---2--2--2--2--2--2--|

D|--5--5--5--5--5--5---5--5--5--5--5--5---2--2--2--2--2--2---2--2--2--2--2--2--|

 

GUITAR 2:

 

e|--12---------------------------------------------------|

B|------15--15--13--13-h-15---12--12-h-15---17--15-h-17--|

G|-------------------------------------------------------|

D|-------------------------------------------------------|

A|-------------------------------------------------------|

D|-------------------------------------------------------|

 

GUITAR 1:

 

e|---------------------------------------|

B|---------------------------------------|

G|--2--2--2--2--2--2---2--2--2--2--2--2--|

D|--2--2--2--2--2--2---2--2--2--2--2--2--|

A|--0--0--0--0--0--0---0--0--0--0--0--0--|

D|---------------------------------------|

 

GUITAR 2:

 

e|-----------------------------------------------------|

B|--12-h-13-p-12---------------------------------------|

G|----------------12-----------------------------------|

D|--------------------12--10--9--10--12----------------|

A|---------------------------------------10--7--8--10--|

D|-----------------------------------------------------|

 

GUITAR 1:

 

e|---------------------------------------|

B|---------------------------------------|

G|---------------------------------------|

D|--3--3--3--3--3--3---3--3--3--3--3--3--|

A|--3--3--3--3--3--3---3--3--3--3--3--3--|

D|--3--3--3--3--3--3---3--3--3--3--3--3--|

 

GUITAR 2:

 

e|---------------------------------------------------------------13-/-15--|

B|-----------------------------13------13-/-15------15-/-17--13-----------|

G|------------------9--10--12------12-----------14------------------------|

D|--10------10--12--------------------------------------------------------|

A|------10----------------------------------------------------------------|

D|------------------------------------------------------------------------|

 

GUITAR 1:

 

e|---------------------------------------|

B|---------------------------------------|

G|---------------------------------------|

D|--5--5--5--5--5--5---5--5--5--5--5--5--|

A|--5--5--5--5--5--5---5--5--5--5--5--5--|

D|--5--5--5--5--5--5---5--5--5--5--5--5--|

 

GUITAR 2:

 

e|------15-/-17------17-/-19------20--19--17--15--|

B|--13-----------15-----------17------------------|

G|------------------------------------------------|

D|------------------------------------------------|

A|------------------------------------------------|

D|------------------------------------------------|

 

GUITAR 1:

 

e|----------------------------|

B|----------------------------|

G|----------------------------|

D|--(7)-x--x--x--x--x--x---7--|

A|--(7)-x--x--x--x--x--x---7--|

D|--(7)-x--x--x--x--x--x---7--|

 

GUITAR 2:

 

e|--12---------------------------------------------|

B|------15--13--12-----------------------------13--|

G|------------------14--12---12-h-14-------12------|

D|-------------------------------------10----------|

A|-------------------------------------------------|

D|-------------------------------------------------|

Taiyou to Tsuki no CROSS - Tron544
00:00 / 00:00
DONATE%20BUTTON%20(EN)_edited.png

Verse/Estrofa:

 

GUITAR 2:

 

e|----------------------------------------------------------------------------|

B|----------------------------------------------------------------------------|

G|----------------------------10---9------------------------------------------|

D|--10--10--9--10--10--9--10----------10---10--10--12---12--12--10--9--10--9--|

A|----------------------------------------------------------------------------|

D|----------------------------------------------------------------------------|

 

GUITAR 1:

 

e|----------------------------------------------------------------|

B|------------------------------------------6--5--6--6---5--6--5--|

G|---------7--5-h-7--7---5-h-7-p-5--5-p-4---5--5--5--5---5--5--5--|

D|--(7)-x---------------------------------------------------------|

A|--(7)-x---------------------------------------------------------|

D|--(7)-x---------------------------------------------------------|

 

GUITAR 2:

 

e|------------------------------------------|

B|------------------------------------------|

G|-------------------------9--10---10---12--|

D|--10--10--9--10--10--12-------------------|

A|------------------------------------------|

D|------------------------------------------|

 

GUITAR 1:

 

e|-----------8--7--8--7----------------8-p-7-------------------|

B|--8--7--8--8--8--8--8-----------------------8----------------|

G|--7--7--7---------------9--7--9--9-------------7-p-5-p-4-----|

D|------------------------9--9--9--9------------------------5--|

A|-------------------------------------------------------------|

D|-------------------------------------------------------------|

 

GUITAR 2:

 

e|-----------------------------|

B|-----------------------------|

G|--------------------------9--|

D|--12---12--12--10--9--10-----|

A|-----------------------------|

D|-----------------------------|

 

 

Pre-Chorus/Pre-Estribillo:

 

GUITAR 1:

 

e|---------------------------------------------|

B|---------------------------------------------|

G|---------------------------------------------|

D|--3---3---2---------3--3--3--3---5--5--5--5--|

A|--3---3---2----10---3--3--3--3---5--5--5--5--|

D|--3---3---2---------3--3--3--3---5--5--5--5--|

 

GUITAR 2:

 

e|--------------------------------------------|

B|--------------------------------------------|

G|------------------9---9--10-----------------|

D|--12--12--10--12-------------10--9--10--12--|

A|--------------------------------------------|

D|--------------------------------------------|

 

GUITAR 1:

 

e|-------------------------------------------------------------------------------|

B|-------------------------------------------------------------------------------|

G|---------------------------------------------------------------------6-(PH)-b--|

D|--3---3---2---3--3--3--3--3--3---3--3--3--3--3--3---5--5---5--5---5------------|

A|--3---3---2---3--3--3--3--3--3---3--3--3--3--3--3---5--5---5--5---5------------|

D|--3---3---2---3--3--3--3--3--3---3--3--3--3--3--3---5--5---5--5---5------------|

 

GUITAR 2:

 

e|--------------------------------------------------|

B|--10--10--10--10--12------------------------------|

G|----------------------12-------------9---10---12--|

D|---------------------------10---12----------------|

A|--------------------------------------------------|

D|--------------------------------------------------|

 

 

Chorus/Estribillo:

 

GUITAR 1:

 

e|--------------------------------------------------------|

B|--------------------------------------------------------|

G|---------------3--3--3--3---5--5--5--5---5--5--5--5--5--|

D|--6--6--6--6---3--3--3--3---5--5--5--5---5--5--5--5--5--|

A|--6--6--6--6---1--1--1--1---3--3--3--3---3--3--3--3--3--|

D|--6--6--6--6--------------------------------------------|

 

GUITAR 2:

 

e|------------------|---------------------------------------------------------|

B|------------------|-------------------11------------------------------------|

G|------10--12--13--|--12---12--12--10------------------------------------10--|

D|--13--------------|-----------------------13--12--13--13----13--12--13------|

A|------------------|---------------------------------------------------------|

D|------------------|---------------------------------------------------------|

 

GUITAR 1:

 

e|------------------------------------------------------------------|

B|------------------------------------------------------------------|

G|---------------3--3--3--3-----------------------------------------|

D|--6--6--6--6---3--3--3--3---1--1--1--1--1---------6---------------|

A|--6--6--6--6---1--1--1--1---1--1--1--1--1---5--6---------2--5--3--|

D|--6--6--6--6----------------1--1--1--1--1------------5------------|

 

GUITAR 2:

 

e|--------------------------------------------------|

B|--------------------11----------------------------|

G|--12----12--12--10------13--12--------10--12--13--|

D|----------------------------------13--------------|

A|--------------------------------------------------|

D|--------------------------------------------------|

 

GUITAR 1:

 

e|---------------------------------------------------------------|

B|----------------------------------------3---4--6------------4--|

G|---------------3--3--3--3--3-----------------------------3-----|

D|--6--6--6--6---3--3--3--3--3---------4----------------5--------|

A|--6--6--6--6---1--1--1--1--1---2--5----------------3-----------|

D|--6--6--6--6---------------------------------------------------|

 

GUITAR 2:

 

e|---------------------------------------------------------|

B|-------------------11------12----------------------------|

G|--12---12--12--10------12--------------10----------------|

D|-------------------------------13--13------13----10--12--|

A|---------------------------------------------------------|

D|---------------------------------------------------------|

 

GUITAR 1:

 

e|------------------------------------------------------------------------|

B|------------------------------------------------------------------------|

G|------------------------------------------------------------------------|

D|--3--3--3--3---5--5--5--5--5--------------------------------------------|

A|--3--3--3--3---5--5--5--5--5---------6-----5--6-----8------6-----5-/-6--|

D|--3--3--3--3---5--5--5--5--5---6--6-----6--------8------8-----8---------|

 

GUITAR 2:

 

e|-----------------------------------------|

B|-----------------------------------------|

G|-------12--10----------------------------|

D|--13-----------13--12--13--13----10--12--|

A|-----------------------------------------|

D|-----------------------------------------|

 

GUITAR 1:

 

e|-----------------------------------------------------------------------------------------------------|

B|-----------------------------------------------------------------------------------------------------|

G|-------------------------------5--x--x--5--x--x--5--x--x--5--x--x--5--x--5--x---5--5--x--5--x--x--5--|

D|--3--3--3--3---5--5--5--5--5---5--x--x--5--x--x--5--x--x--5--x--x--5--x--5--x---5--5--x--5--x--x--5--|

A|--3--3--3--3---5--5--5--5--5---3--x--x--3--x--x--3--x--x--3--x--x--3--x--3--x---3--3--x--3--x--x--3--|

D|--3--3--3--3---5--5--5--5--5-------------------------------------------------------------------------|

 

GUITAR 2:

 

e|--------------------------------|

B|-------------------11--11-/-13--|

G|-------12--10--12---------------|

D|--13----------------------------|

A|--------------------------------|

D|--------------------------------|

©2015 by Fefe - Tron544

Sigueme en:

  • YouTube - White Circle
  • Facebook - White Circle
  • Instagram - White Circle
  • Twitter - White Circle
This site was designed with the
.com
website builder. Create your website today.
Start Now