~ SYMPATHY ~

TABLATURAS ~ By Fefe - Tron544

 

Intro:

 

e|----------------------------------------------------------|

B|----------------------------------------------------------|

G|---------------12---13------------------------10----------|

D|--10--12--13-------------13--13--12---10--12------13--13--|

A|----------------------------------------------------------|

D|----------------------------------------------------------|

 

e|----------------------------------------------------------------------|

B|---------------13----------------------------11------11--11-h-13--13--|

G|------10--12-------12--12--13--13----------------10-------------------|

D|--13-------------------------------13--12-----------------------------|

A|----------------------------------------------------------------------|

D|----------------------------------------------------------------------|

 

 

Verse/Estrofa:

 

GUITAR 1:

 

e|--------------------------------------------------|--------------------------------------------------|

B|--------------------------------------------------|--------------------------------------------------|

G|--5--x--x---x--x--x--x---x--x--x--x---x--x--x--x--|--3--x--x---x--x--x--x---x--x--x--x---x--x--x--x--|

D|--5--x--x---x--x--x--x---x--x--x--x---x--x--x--x--|--3--x--x---x--x--x--x---x--x--x--x---x--x--x--x--|

A|--3--x--x---x--x--x--x---x--x--x--x---x--x--x--x--|--1--x--x---x--x--x--x---x--x--x--x---x--x--x--x--|

D|--------------------------------------------------|--------------------------------------------------|

 

GUITAR 2:

 

e|--------------------------------------|--------------------------------------|

B|--------------------------------------|--------------------------------------|

G|--12--------------10------------------|--12--------------10------------------|

D|------10--12--13------13--12--13--10--|------10--12--13------13--12--13--10--|

A|--------------------------------------|--------------------------------------|

D|--------------------------------------|--------------------------------------|

 

GUITAR 1:

 

e|-----------------------------------------------|----------------------------------------------------------|

B|-----------------------------------------------|----------------------------------------------------------|

G|-------------------------3--x--x---x--x--x--x--|--8--x--x---x--x--x--x---12--10--14---12--10--10--12------|

D|--6--x--x---x--x--x--x---3--x--x---x--x--x--x--|--8--x--x---x--x--x--x--------------------------------12--|

A|--6--x--x---x--x--x--x---1--x--x---x--x--x--x--|--6--x--x---x--x--x--x------------------------------------|

D|--6--x--x---x--x--x--x-------------------------|----------------------------------------------------------|

 

GUITAR 2:

 

e|------------------------------------------|--------------|

B|------------------------------------------|--------------|

G|--13------13------10--10--10--10------10--|--13--12--12--|

D|------13------13------------------13------|--------------|

A|------------------------------------------|--------------|

D|------------------------------------------|--------------|

 

GUITAR 1:

 

e|--------------------------------------------------|--------------------------------------------------|

B|--------------------------------------------------|--------------------------------------------------|

G|--5--x--x---x--x--x--x---x--x--x--x---x--x--x--x--|--3--x--x---x--x--x--x---x--x--x--x---x--x--x--x--|

D|--5--x--x---x--x--x--x---x--x--x--x---x--x--x--x--|--3--x--x---x--x--x--x---x--x--x--x---x--x--x--x--|

A|--3--x--x---x--x--x--x---x--x--x--x---x--x--x--x--|--1--x--x---x--x--x--x---x--x--x--x---x--x--x--x--|

D|--------------------------------------------------|--------------------------------------------------|

 

GUITAR 2:

 

e|--------------------------------------|--------------------------------------|

B|--------------------------------------|--------------------------------------|

G|--12--------------10------------------|--12--------------10------------------|

D|------10--12--13------13--12--13--10--|------10--12--13------13--12--13--10--|

A|--------------------------------------|--------------------------------------|

D|--------------------------------------|--------------------------------------|

 

GUITAR 1:

 

e|-----------------------------------------------|

B|-----------------------------------------------|

G|-------------------------3--x--x---x--x--x--x--|

D|--6--x--x---x--x--x--x---3--x--x---x--x--x--x--|

A|--6--x--x---x--x--x--x---1--x--x---x--x--x--x--|

D|--6--x--x---x--x--x--x-------------------------|

 

GUITAR 2:

 

e|------------------------------------------|

B|------------------------------------------|

G|--13------13------------------------------|

D|------13------13--12--12--12--12--10--12--|

A|------------------------------------------|

D|------------------------------------------|

 

 

GUITAR 1:

 

e|-----------------------------------------------------------------------|

B|-------------------------18-b--18--16----------------------------------|

G|--8--x--x---x--x--x--x---------------------15--------------------------|

D|--8--x--x---x--x--x--x-----------------18------18--17--15--17--15------|

A|--6--x--x---x--x--x--x---------------------------------------------18--|

D|-----------------------------------------------------------------------|

 

GUITAR 2:

 

e|--------------|

B|--------------|

G|--10----------|

D|------13--13--|

A|--------------|

D|--------------|

 

 

Pre-Chorus/Pre-Estribillo:

 

GUITAR 1:

 

e|-----------------------------------------|

B|-----------------------------------------|

G|-----------------------------------------|

D|--------------------------3--0--1--------|

A|--3---5--6------1--3--1------------1-----|

D|------------6-------------------------1--|

 

GUITAR 2:

 

e|----------------------------------------------------------|

B|----------------------------------------------------------|

G|---------------12---13------------------------10----------|

D|--10--12--13-------------13--13--12---10--12------13--13--|

A|----------------------------------------------------------|

D|----------------------------------------------------------|

 

GUITAR 1:

 

e|--------------------------------------------------------|

B|--------------------------------------------------------|

G|---------------------------3----5-----------------------|

D|---------------------------3----5-----------------------|

A|--3---5--6------1--3--1----1----3--------------4--6--8--|

D|------------6------------------------6--8--10-----------|

 

GUITAR 2:

 

e|----------------------------------------------------------------------|

B|---------------13----------------------------11------11--11-h-13--13--|

G|------10--12-------12--12--13--13----------------10-------------------|

D|--13-------------------------------13--12-----------------------------|

A|----------------------------------------------------------------------|

D|----------------------------------------------------------------------|

 

 

Chorus/Estribillo:

 

GUITAR 1:

 

e|-----------------------------------------------------------------------------------------|

B|-----------------------------------------------------------------------------------------|

G|--6--x--x--6--x--6--6---2--x--x--2--x--2--2---4--x--x--4--x--4--4------------------------|

D|--6--x--x--6--x--6--6---2--x--x--2--x--2--2---4--x--x--4--x--4--4---6--x--x--6--x--6--6--|

A|--4--x--x--4--x--4--4---0--x--x--0--x--0--0---2--x--x--2--x--2--2---6--x--x--6--x--6--6--|

D|--------------------------------------------------------------------6--x--x--6--x--6--6--|

 

GUITAR 2:

 

e|---------------------------------------------------------------------------------------------|

B|--------------------------10--10--10--10--10--12--14--12-------------------------10----------|

G|--13--13--13--13--11--9-----------------------------------11--11--11--9--11--13------13--11--|

D|---------------------------------------------------------------------------------------------|

A|---------------------------------------------------------------------------------------------|

D|---------------------------------------------------------------------------------------------|

 

GUITAR 1:

 

e|---------------------------------------------------------------------------------------------|

B|---------------------------------------------------------------------------------------------|

G|---------------------------------------------------------------------------------------------|

D|--7--x--x--7--x--7--7---8--x--x--8--x--8--8---6--x--x--6--x--6--6---6--x---------------------|

A|--7--x--x--7--x--7--7---9--x--x--9--x--9--9---6--x--x--6--x--6--6---6--x------------4--6--8--|

D|--7--x--x--7--x--7--7---8--x--x--8--x--8--8---6--x--x--6--x--6--6---6--x--6--8--10-----------|

 

GUITAR 2:

 

e|---------------------------------------------|

B|---------------------------------------------|

G|--11-p-9----9--8--9--11------11--11--13--13--|

D|-------------------------11------------------|

A|---------------------------------------------|

D|---------------------------------------------|

 

GUITAR 1:

 

e|-----------------------------------------------------------------------------------------|

B|-----------------------------------------------------------------------------------------|

G|--6--x--x--6--x--6--6---2--x--x--2--x--2--2---4--x--x--4--x--4--4---5--x--x--5--x--5--5--|

D|--6--x--x--6--x--6--6---2--x--x--2--x--2--2---4--x--x--4--x--4--4---6--x--x--6--x--6--6--|

A|--4--x--x--4--x--4--4---0--x--x--0--x--0--0---2--x--x--2--x--2--2---3--x--x--3--x--3--3--|

D|-----------------------------------------------------------------------------------------|

 

GUITAR 2:

 

e|-----------------------------------------------------------------------------------------------|

B|------------------10--10--10--10--10--12--14--12--12--12--12------12--13--13--13---13------13--|

G|--13--13--11--9-----------------------------------------------11-----------------------13------|

D|-----------------------------------------------------------------------------------------------|

A|-----------------------------------------------------------------------------------------------|

D|-----------------------------------------------------------------------------------------------|

 

GUITAR 1:

 

e|-----------------------------------------------------------------------------------------|

B|-----------------------------------------------------------------------------------------|

G|--6--x--x--6--x--6--6-----------------------------------------------4--x--x--4--x--4--4--|

D|--6--x--x--6--x--6--6---2--x--x--2--x--2--2---4--x--x--4--x--4--4---4--x--x--4--x--4--4--|

A|--4--x--x--4--x--4--4---2--x--x--2--x--2--2---4--x--x--4--x--4--4---2--x--x--2--x--2--2--|

D|------------------------2--x--x--2--x--2--2---4--x--x--4--x--4--4------------------------|

 

GUITAR 2:

 

e|-----------------------------------------------|

B|--14--------------------10-----10--10--12--12--|

G|-------13---11---9----------9------------------|

D|-----------------------------------------------|

A|-----------------------------------------------|

D|-----------------------------------------------|

 

GUITAR 1:

 

e|-----------------------------------------------------------------------------------------|

B|-----------------------------------------------------------------------------------------|

G|------------------------6--x--x--6--x--6--6---2--x--x--2--x--2--2---4--x--x--4--x--4--4--|

D|--6--x--x--6--x--6--6---6--x--x--6--x--6--6---2--x--x--2--x--2--2---4--x--x--4--x--4--4--|

A|--6--x--x--6--x--6--6---4--x--x--4--x--4--4---0--x--x--0--x--0--0---2--x--x--2--x--2--2--|

D|--6--x--x--6--x--6--6--------------------------------------------------------------------|

 

GUITAR 2:

 

e|-------------------------------------------------------|

B|--12------12--12--14--14----10-----10--10--12--12------|

G|------11------------------------9------------------11--|

D|-------------------------------------------------------|

A|-------------------------------------------------------|

D|-------------------------------------------------------|

 

GUITAR 1:

 

e|----------------------------|

B|----------------------------|

G|-------------------------6--|

D|--------2--------2-------6--|

A|--4--2-----4--2-----4----4--|

D|----------------------------|

 

GUITAR 2:

 

e|--------------------------|

B|--------------------------|

G|---------9---------9------|

D|--11--9-----11--9-----11--|

A|--------------------------|

D|--------------------------|

 

 

Sympathy - Tron544
00:00 / 00:00

©2019 by Fefe - Tron544

Sigueme en:

  • YouTube - White Circle
  • Facebook - White Circle
  • Instagram - White Circle
  • Twitter - White Circle
This site was designed with the
.com
website builder. Create your website today.
Start Now