~ SUPER MARIO BROS. THEME SONG ~

TABLATURAS ~ By Fefe - Tron544

 

Intro:

 

e|-----------------------|

B|--5--5--5-----5--8-----|

G|-----------5-----------|

D|--------------------5--|

A|-----------------------|

E|-----------------------|

 

  /~~~~~~~~~~~~~~~~REPEAT~x2~/~REPITE~x2~~~~~~~~~~~~~~~\

e|------------------------------------------------------|

B|--------------------------5--8--10--6--8--5-----------|

G|--5------------------------------------------5--7--4--|

D|-----5-----7--9--8--7--5------------------------------|

A|--------7---------------------------------------------|

E|------------------------------------------------------|

 

 

Verse/Estrofa:

 

e|----------------------------------------------------8--8--8--|----------------------------------------------|

B|--8--7--6----------------------------8--7--6-----------------|--8--7--6-------------------------------------|

G|-----------8--9--------5-----5--7-------------8--9-----------|-----------8--9--------5-----5--7----8--7--5--|

D|-----------------6--7-----7----------------------------------|-----------------6--7-----7-------------------|

A|-------------------------------------------------------------|----------------------------------------------|

E|-------------------------------------------------------------|----------------------------------------------|

 

 

Pre-Chorus/Pre-Estribillo:

 

e|-------------------------------------------------|----------------------------------------------------|

B|-------------------------------------------------|-------------------------------5--5--5-----5--8-----|

G|--5--5--5--5--7--9--5----------5--5--5--5--7--9--|--5--5--5--5--7--9--5-------------------5-----------|

D|-----------------------7--5----------------------|-----------------------7--5----------------------5--|

A|-------------------------------------------------|----------------------------------------------------|

E|-------------------------------------------------|----------------------------------------------------|

 

 

Chorus/Estribillo: x2

 

e|---------------------------------------------------|

B|-----------------------5--8--10--6--8--5-----------|

G|--5---------------------------------------5--7--4--|

D|-----5-----7--9--8--7------------------------------|

A|--------7------------------------------------------|

E|---------------------------------------------------|

 

 

Bridge/Puente: x2

 

e|-------------------------------------------------------------|-------------------------------------------------|

B|--5--------------6--6----------10--10--10--8--6--5-----------|--5--------------6--6----------6--6--6--5--------|

G|-----5----------------------4-----------------------5--------|-----5----------------------4--------------7--5--|

D|--------5--6--7--------7-------------------------------7--5--|--------5--6--7--------7-------------------------|

A|-------------------------------------------------------------|-------------------------------------------------|

E|-------------------------------------------------------------|-------------------------------------------------|

 

 

Pre-Chorus/Pre-Estribillo:

 

e|-------------------------------------------------|----------------------------------------------------|

B|-------------------------------------------------|-------------------------------5--5--5-----5--8-----|

G|--5--5--5--5--7--9--5----------5--5--5--5--7--9--|--5--5--5--5--7--9--5-------------------5-----------|

D|-----------------------7--5----------------------|-----------------------7--5----------------------5--|

A|-------------------------------------------------|----------------------------------------------------|

E|-------------------------------------------------|----------------------------------------------------|

 

 

Bridge/Puente:

 

e|-------------------------------------------------------------|-------------------------------------------------|

B|--5--------------6--6----------10--10--10--8--6--5-----------|--5--------------6--6----------6--6--6--5--------|

G|-----5----------------------4-----------------------5--------|-----5----------------------4--------------7--5--|

D|--------5--6--7--------7-------------------------------7--5--|--------5--6--7--------7-------------------------|

A|-------------------------------------------------------------|-------------------------------------------------|

E|-------------------------------------------------------------|-------------------------------------------------|

 

 

Chorus/Estribillo:

 

e|---------------------------------------------------|

B|-----------------------5--8--10--6--8--5-----------|

G|--5---------------------------------------5--7--4--|

D|-----5-----7--9--8--7------------------------------|

A|--------7------------------------------------------|

E|---------------------------------------------------|

Super Mario Bros. Theme Song - Tron544
00:00 / 00:00

©2019 by Fefe - Tron544

Sigueme en:

  • YouTube - White Circle
  • Facebook - White Circle
  • Instagram - White Circle
  • Twitter - White Circle
This site was designed with the
.com
website builder. Create your website today.
Start Now