SUPER DRIVER

THE MELANCHOLY OF HARUHI SUZUMIYA

TABS ~ By Fefe (Tron544)

 

Intro:

 

e|------------------------------------|

B|------------------------------------|

G|------------------------------------|

D|--6-/-7--7--7--7----6-/-7--7--7--7--|

A|--6-/-7--7--7--7----6-/-7--7--7--7--|

E|--4-/-5--5--5--5----4-/-5--5--5--5--|

e|------------------------------------|

B|------------------------------------|

G|------------------------------------|

D|--6-/-7--7--7--7----6-/-7--7--7--7--|

A|--6-/-7--7--7--7----6-/-7--7--7--7--|

E|--4-/-5--5--5--5----4-/-5--5--5--5--|

 

e|----------------------------------------17------16----------------------------|

B|--------------17------17------------------------------------------17------17--|

G|--14--13--14------14--------14--13--14------14--------14--13--14------14------|

D|------------------------------------------------------------------------------|

A|------------------------------------------------------------------------------|

E|------------------------------------------------------------------------------|

 

 

Verse/Estrofa:

 

GUITAR 1:

 

e|--------------------------|-----------------------------------------|

B|--------------------------|-----------------------------------------|

G|--------------------------|--7--7--7--7--------------7--7--7--7--9--|

D|--7------6------4------2--|--7--7--7--7--7--7--7--7--7--7--7--7--9--|

A|--7------6------4------2--|--5--5--5--5--7--7--7--7--5--5--5--5--7--|

E|--5------4------2------0--|--------------5--5--5--5-----------------|

 

GUITAR 2:

 

e|-----------------7---------7-----------------|----------------------------------------------|

B|-------------10-----10--9-----10-------------|-----7-----------7----------------------------|

G|--6--7--9---------------------------6-----6--|--------9-----------9-------6--7--6--7--9-----|

D|---------------------------------------9-----|--7--------7--7----------7-----------------9--|

A|---------------------------------------------|----------------------------------------------|

E|---------------------------------------------|----------------------------------------------|

 

GUITAR 1:

 

e|--------------------------|-----------------------------------------|

B|--------------------------|-----------------------------------------|

G|--------------------------|--7--7--7--7--------------7--7--7--7--9--|

D|--7------6------4------2--|--7--7--7--7--7--7--7--7--7--7--7--7--9--|

A|--7------6------4------2--|--5--5--5--5--7--7--7--7--5--5--5--5--7--|

E|--5------4------2------0--|--------------5--5--5--5-----------------|

 

GUITAR 2:

 

e|-----------------7---------7-----------------|---------------------------------------------------|

B|-------------10-----10--9-----10-------------|--------7-----------7----------10--10--9--7--9-----|

G|--6--7--9---------------------------6-----6--|-----------9-----------9----9-------------------9--|

D|---------------------------------------9-----|--7--7--------7--7---------------------------------|

A|---------------------------------------------|---------------------------------------------------|

E|---------------------------------------------|---------------------------------------------------|

 

 

Pre-Chorus/Pre-Estribillo:

 

GUITAR 1:

 

e|-----------------------------------|

B|-----------------------------------|

G|--7----9----6---------7----9-------|

D|--7----9----6----4----7----9----7--|

A|--5----7----4----4----5----7----7--|

E|-----------------2--------------5--|

 

GUITAR 2:

 

e|------------------------7--9------------------------7--9--|

B|--------7--9--7--9--10--------10----9--7--7--9--10--------|

G|--7--9----------------------------------------------------|

D|----------------------------------------------------------|

A|----------------------------------------------------------|

E|----------------------------------------------------------|

 

GUITAR 1:

 

e|--------------------------------|---------------------|

B|--------------------------------|---------------------|

G|--7----9----6---------7------9--|--9--9--9--9---------|

D|--7----9----6----4----7------9--|--9--9--9--9---------|

A|--5----7----4----4----5------7--|--7--7--7--7---------|

E|-----------------2--------------|----------------\15--|

 

GUITAR 2:

 

e|------------------------7--7-----------------------------------------------7--|--9--9--9--9--9--9--7--|

B|--------7--9--7--9--10--------10----10--9--7--10----7--9--10--10----9--10-----|-----------------------|

G|--7--9------------------------------------------------------------------------|-----------------------|

D|------------------------------------------------------------------------------|-----------------------|

A|------------------------------------------------------------------------------|-----------------------|

E|------------------------------------------------------------------------------|-----------------------|

Super Driver - Tron544
00:00 / 00:00
DONATE%20BUTTON%20(EN)_edited.png

Chorus/Estribillo:

 

GUITAR 1:

 

e|------------|-------------------|

B|------------|-------------------|

G|------------|--6------7------9--|

D|--7------4--|--6------7------9--|

A|--7------4--|--4------5------7--|

E|--5------2--|-------------------|

 

GUITAR 2:

 

e|----------------7--9--7--9--7-------------------7--9--|-----------------------------------9--7--7--|

B|-----10--9--10-----------------10--9--7--9--10--------|--7--10--9----------7--9--10----7-----------|

G|--9---------------------------------------------------|--------------7--9--------------------------|

D|------------------------------------------------------|--------------------------------------------|

A|------------------------------------------------------|--------------------------------------------|

E|------------------------------------------------------|--------------------------------------------|

 

GUITAR 1:

 

e|------------|-------------------|

B|------------|-------------------|

G|------------|--6------7------9--|

D|--7------4--|--6------7------9--|

A|--7------4--|--4------5------7--|

E|--5------2--|-------------------|

 

GUITAR 2:

 

e|----------------7--9--7--9--7-------------------7--9--|-----------------------------------9--7--7--|

B|-----10--9--10-----------------10--9--7--9--10--------|--7--10--9----------7--9--10----7-----------|

G|--9---------------------------------------------------|--------------7--9--------------------------|

D|------------------------------------------------------|--------------------------------------------|

A|------------------------------------------------------|--------------------------------------------|

E|------------------------------------------------------|--------------------------------------------|

 

 

Bridge/Puente:

 

GUITAR 1:

 

e|-----------------------------------|

B|-----------------------------------|

G|--7----9----6---------7----9-------|

D|--7----9----6----4----7----9----7--|

A|--5----7----4----4----5----7----7--|

E|-----------------2--------------5--|

 

GUITAR 2:

 

e|-------------------7--9--10--9----------------------7--9--|

B|--7--9--10--9--10---------------10--9--7--7--9--10--------|

G|----------------------------------------------------------|

D|----------------------------------------------------------|

A|----------------------------------------------------------|

E|----------------------------------------------------------|

 

GUITAR 1:

 

e|-----------------------------------|

B|-----------------------------------|

G|--7----9----6---------7----9-------|

D|--7----9----6----4----7----9----7--|

A|--5----7----4----4----5----7----7--|

E|-----------------2--------------5--|

 

GUITAR 2:

 

e|-------------------7--9--10--9----------------------7------|

B|--7--9--10--9--10---------------10--9--7--7--9--10-----10--|

G|-----------------------------------------------------------|

D|-----------------------------------------------------------|

A|-----------------------------------------------------------|

E|-----------------------------------------------------------|

 

GUITAR 1:

 

e|-----------------------------------|

B|-----------------------------------|

G|--7----9----6---------7----9-------|

D|--7----9----6----4----7----9----7--|

A|--5----7----4----4----5----7----7--|

E|-----------------2--------------5--|

 

GUITAR 2:

 

e|-------------------7--9--10--9----------------------7--9--|

B|--7--9--10--9--10---------------10--9--7--7--9--10--------|

G|----------------------------------------------------------|

D|----------------------------------------------------------|

A|----------------------------------------------------------|

E|----------------------------------------------------------|

 

GUITAR 1:

 

e|----------------------------------------------|

B|----------------------------------------------|

G|--7----9----6---------7----9---9--7--6--------|

D|--7----9----6----4----7----9------------9--7--|

A|--5----7----4----4----5----7------------------|

E|-----------------2----------------------------|

 

GUITAR 2:

 

e|-------------------7--9--10--9------------10--9--7------|

B|--7--9--10--9--10---------------10--9--7------------10--|

G|--------------------------------------------------------|

D|--------------------------------------------------------|

A|--------------------------------------------------------|

E|--------------------------------------------------------|

 

 

Outro:

 

e|----------------------------------------17------16----------------------------|

B|--------------17------17------------------------------------------17------17--|

G|--14--13--14------14--------14--13--14------14--------14--13--14------14------|

D|------------------------------------------------------------------------------|

A|------------------------------------------------------------------------------|

E|------------------------------------------------------------------------------|

©2015 by Fefe - Tron544

Sigueme en:

  • YouTube - White Circle
  • Facebook - White Circle
  • Instagram - White Circle
  • Twitter - White Circle
This site was designed with the
.com
website builder. Create your website today.
Start Now