STYX HELIX

RE:ZERO KARA HAJIMERU ISEKAI SEKAITSU

TABS ~ By Fefe (Tron544)

 

Intro:

GUITAR (Vocals):

e|-----------|---------------------------------------|
B|-----------|---------------------------------------|
G|-----13-9--|--11--11/13------13-9-11--11/13--------|
D|--11-------|-------------11------------------11----|
A|-----------|---------------------------------------|
E|-----------|---------------------------------------|

GUITAR (Rhythm): Palm-mute

e|-------------------------------------------------------------------|
B|-------------------------------------------------------------------|
G|-------------------------------------------------------------------|
D|-------------------------------------------------------------------|
A|--0-0-0-0-0-0-0-0-2-2-2-2-2-2-2-2-4-4-4-4-4-4-4-4-2-2-2-2-2-2-2-2--|
E|-------------------------------------------------------------------|

GUITAR (Vocals):

e|------------------------|
B|------------------------|
G|------------------13-9--|
D|---------------11-------|
A|------------------------|
E|------------------------|

GUITAR (Rhythm): Palm-mute

e|-------------------------------------------------------------------|
B|-------------------------------------------------------------------|
G|-------------------------------------------------------------------|
D|-------------------------------------------------------------------|
A|--0-0-0-0-0-0-0-0-2-2-2-2-2-2-2-2-----------------4-4-4-4-4-4-4-4--|
E|----------------------------------4-4-4-4-4-4-4-4------------------|

GUITAR (Vocals):

e|---------------------------------------|
B|---------------------------------------|
G|--11--11/13------13-9-11--11/13--------|
D|-------------11------------------11----|
A|---------------------------------------|
E|---------------------------------------|

GUITAR (Rhythm): Palm-mute

e|-------------------------------------------------------------------|
B|-------------------------------------------------------------------|
G|-------------------------------------------------------------------|
D|-------------------------------------------------------------------|
A|--0-0-0-0-0-0-0-0-2-2-2-2-2-2-2-2-4-4-4-4-4-4-4-4-2-2-2-2-2-2-2-2--|
E|-------------------------------------------------------------------|

GUITAR (Vocals):

e|--------------------|
B|--------------------|
G|--------------------|
D|----------------11--|
A|--------------------|
E|--------------------|

GUITAR (Rhythm): Palm-mute

e|---------------------------------------------------------------------------------------------------|
B|---------------------------------------------------------------------------------------------------|
G|---------------------------------------------------------------------------------------------------|
D|---------------------------------------------------------------------------------------------------|
A|--0-0-0-0-0-0-0-0-2-2-2-2-2-2-2-2-4-4-4-4-4-4-4-4-4-4-4-4-4-4-4-4-4-4-4-4-4-4-4-4-4-4-4-4-4-4-4-4--|
E|---------------------------------------------------------------------------------------------------|

 


Verse/Estrofa:

GUITAR (Vocals):

e|-------------------------------------------------------------------|
B|---------------------9-----9/10--9---------------------------------|
G|--9---11-9------11-----11------------11-9-11---9-8-9---8-----------|
D|------------11-------------------------------------------11-9--11--|
A|-------------------------------------------------------------------|
E|-------------------------------------------------------------------|

e|--------------------------------------------------------------------|
B|---------------------9-----10--------------10/12-10-9---------------|
G|--9---11-9------11-----11------11/13------------------11-9-11--9----|
D|------------11---------------------------------------------------9--|
A|--------------------------------------------------------------------|
E|--------------------------------------------------------------------|


Pre-Chorus/Pre-Estribillo:

GUITAR (Vocals):

e|--------------------------------------------------------|
B|--------------10/12--10--9------------------------------|
G|----------------------------11/12----11---\9-7h9--------|
D|--11----------------------------------------------------|
A|--------------------------------------------------------|
E|--------------------------------------------------------|

STYX HELIX - Tron544
00:00 / 00:00
DONATE%20BUTTON%20(EN)_edited.png

Chorus/Estribillo:

GUITAR (Vocals):

e|-----------|-----------------------------------------|
B|-----------|-----------------------------------------|
G|-----13-9--|--11--11/13------13-9-11--11/13----------|
D|--11-------|-------------11------------------11---9--|
A|-----------|-----------------------------------------|
E|-----------|-----------------------------------------|

GUITAR (Rhythm): Palm-mute

e|-------------------------------------------------------------------|
B|-------------------------------------------------------------------|
G|-------------------------------------------------------------------|
D|-------------------------------------------------------------------|
A|--0-0-0-0-0-0-0-0-2-2-2-2-2-2-2-2-4-4-4-4-4-4-4-4-2-2-2-2-2-2-2-2--|
E|-------------------------------------------------------------------|

GUITAR (Vocals):

e|--------------------------------------------------|
B|--------------------------------------------------|
G|-----13-------13--11--11-13-13-13-9--11--11/13----|
D|--11-----9-11-------------------------------------|
A|--------------------------------------------------|
E|--------------------------------------------------|

GUITAR (Rhythm): Palm-mute

e|-------------------------------------------------------------------|
B|-------------------------------------------------------------------|
G|-------------------------------------------------------------------|
D|-------------------------------------------------------------------|
A|--0-0-0-0-0-0-0-0-2-2-2-2-2-2-2-2-----------------4-4-4-4-4-4-4-4--|
E|----------------------------------4-4-4-4-4-4-4-4------------------|

GUITAR (Vocals):

e|-------------------------------------|
B|-------------------------------------|
G|---------11-9-------11-9-----9/11-9--|
D|---11-9--------11-9-------9----------|
A|-------------------------------------|
E|-------------------------------------|

GUITAR (Rhythm): Palm-mute

e|-------------------------------------------------------------------|
B|-------------------------------------------------------------------|
G|-------------------------------------------------------------------|
D|-------------------------------------------------------------------|
A|--0-0-0-0-0-0-0-0-0-0-0-0-0-0-0-0-2-2-2-2-2-2-2-2-2-2-2-2-2-2-2-2--|
E|-------------------------------------------------------------------|

GUITAR (Vocals):

e|--------------------------------|
B|----------10--------------------|
G|--8----------11/13--------13-9--|
D|-----------------------11-------|
A|--------------------------------|
E|--------------------------------|

GUITAR (Rhythm): Palm-mute

e|-------------------------------------------------------------------|
B|-------------------------------------------------------------------|
G|-------------------------------------------------------------------|
D|-------------------------------------------------------------------|
A|--4-4-4-4-4-4-4-4-4-4-4-4-4-4-4-4-4-4-4-4-4-4-4-4-4-4-4-4-4-4-4-4--|
E|-------------------------------------------------------------------|

GUITAR (Vocals):

e|-----------------------------------------|
B|-----------------------------------------|
G|--11--11/13------13-9-11--11/13----------|
D|-------------11------------------11---9--|
A|-----------------------------------------|
E|-----------------------------------------|

GUITAR (Rhythm): Palm-mute

e|-------------------------------------------------------------------|
B|-------------------------------------------------------------------|
G|-------------------------------------------------------------------|
D|-------------------------------------------------------------------|
A|--0-0-0-0-0-0-0-0-2-2-2-2-2-2-2-2-4-4-4-4-4-4-4-4-2-2-2-2-2-2-2-2--|
E|-------------------------------------------------------------------|

GUITAR (Vocals):

e|--------------------------------------------------|
B|--------------------------------------------------|
G|-----13-------13------11-13-13-13-9--11--11/13----|
D|--11-----9-11-----11------------------------------|
A|--------------------------------------------------|
E|--------------------------------------------------|

GUITAR (Rhythm): Palm-mute

e|-------------------------------------------------------------------|
B|-------------------------------------------------------------------|
G|-------------------------------------------------------------------|
D|-------------------------------------------------------------------|
A|--0-0-0-0-0-0-0-0-2-2-2-2-2-2-2-2-----------------4-4-4-4-4-4-4-4--|
E|----------------------------------4-4-4-4-4-4-4-4------------------|

GUITAR (Vocals):

e|-----------------------------|
B|----7/9-------------------9--|
G|-------------11--8------8----|
D|----------------------9------|
A|-----------------------------|
E|-----------------------------|

GUITAR (Rhythm): Palm-mute

e|-------------------------------------------------------------------|
B|-------------------------------------------------------------------|
G|-------------------------------------------------------------------|
D|-------------------------------------------------------------------|
A|--0-0-0-0-0-0-0-0-0-0-0-0-0-0-0-0-2-2-2-2-2-2-2-2-2-2-2-2-2-2-2-2--|
E|-------------------------------------------------------------------|

GUITAR (Vocals):

e|--------------------------------------|
B|-------9----------10/12----10---9-----|
G|--11-----11-9---9-----------------11--|
D|--------------------------------------|
A|--------------------------------------|
E|--------------------------------------|

GUITAR (Rhythm): Palm-mute

e|-------------------------------------------------------------------|
B|-------------------------------------------------------------------|
G|-------------------------------------------------------------------|
D|-------------------------------------------------------------------|
A|--4-4-4-4-4-4-4-4-4-4-4-4-4-4-4-4-4-4-4-4-4-4-4-4-4-4-4-4-4-4-4-4--|
E|-------------------------------------------------------------------|

 


Outro:

GUITAR (Vocals):

e|---------------------|
B|-----------------10--|
G|--9------------------|
D|---------------------|
A|---------------------|
E|---------------------|

GUITAR (Rhythm): Palm-mute

e|-------------------------------------------------------------------|
B|-------------------------------------------------------------------|
G|-------------------------------------------------------------------|
D|-------------------------------------------------------------------|
A|--0-0-0-0-0-0-0-0-2-2-2-2-2-2-2-2-4-4-4-4-4-4-4-4-2-2-2-2-2-2-2-2--|
E|-------------------------------------------------------------------|

GUITAR (Vocals):

e|------------11------------------------9--|
B|--10/12--------12-10--10/12--------10----|
G|---------9-------------------9---9-------|
D|-----------------------------------------|
A|-----------------------------------------|
E|-----------------------------------------|

GUITAR (Rhythm): Palm-mute

e|-------------------------------------------------------------------|
B|-------------------------------------------------------------------|
G|-------------------------------------------------------------------|
D|-------------------------------------------------------------------|
A|--0-0-0-0-0-0-0-0-2-2-2-2-2-2-2-2-----------------4-4-4-4-4-4-4-4--|
E|----------------------------------4-4-4-4-4-4-4-4------------------|

GUITAR (Vocals):

e|-------------------|
B|-------------------|
G|----------------8--|
D|-------------------|
A|-------------------|
E|-------------------|

GUITAR (Rhythm): Palm-mute

e|-------------------------------------------------------------------|
B|-------------------------------------------------------------------|
G|-------------------------------------------------------------------|
D|-------------------------------------------------------------------|
A|--0-0-0-0-0-0-0-0-0-0-0-0-0-0-0-0-2-2-2-2-2-2-2-2-2-2-2-2-2-2-2-2--|
E|-------------------------------------------------------------------|

GUITAR (Vocals):

e|---------------------------------|
B|----------9----------------------|
G|--8/9-------9-8--8/9----------9--|
D|-------6--------------6---6-7----|
A|---------------------------------|
E|---------------------------------|

GUITAR (Rhythm): Palm-mute

e|-------------------------------------------------------------------|
B|-------------------------------------------------------------------|
G|-------------------------------------------------------------------|
D|-------------------------------------------------------------------|
A|--4-4-4-4-4-4-4-4-4-4-4-4-4-4-4-4-4-4-4-4-4-4-4-4-4-4-4-4-4-4-4-4--|
E|-------------------------------------------------------------------|

©2015 by Fefe - Tron544

Sigueme en:

  • YouTube - White Circle
  • Facebook - White Circle
  • Instagram - White Circle
  • Twitter - White Circle
This site was designed with the
.com
website builder. Create your website today.
Start Now